PrimaNota.ru - самый крупный в мире бесплатный архив песенных текстов, аккордов, табулатур и нот


Misc Unsigned Bands - Plamen - 1St Try - таба

Регистрация Запомнить меня
Войти через:  Facebook Google Twitter Vk Yandex Mail.ru

Misc Unsigned Bands - Plamen - 1St Try - таба

Печатать
Просмотров: 44
-------------------------------------------------------------------------------
                             SONG NAME - Band Name
-------------------------------------------------------------------------------
Tabbed by:plamen
E-mail:

Tuning:Standard

e|----------------------------------------------------------------------|
B|----------------------------------------------------------------------|
G|----------------------------------------------------------------------|
D|-----9-----------7-----------5----------------5--------7--------5-----|
A|-----7-----------5-----------3----------------3--------5--------3-----|
E|----------------------------------------0--0-----0--0-----0--0--------|
                                          .  .     .  .     .  .

e|----------------------------------------------------------------------|
B|----------------------------------------------------------------------|
G|----------------------------------------------------------------------|
D|-----9-----------5-----------7----------------5--------7--------9-----|
A|-----7-----------3-----------5----------------3--------5--------7-----|
E|----------------------------------------0--0-----0--0-----0--0--------|
                                          .  .     .  .     .  .

e|-------------------------------------------------|
B|-------------------------------------------------|
G|-------------------------------------------------|
D|--------------5/7--------5--------7--------5-----|
A|--------------3/5--------3--------5--------3-----|
E|-----0-0-0--0------0--0-----0--0-----0--0--------|
       . . .  .      .  .     .  .     .  .

e|-------------------------------------------------|
B|-------------------------------------------------|
G|-------------------------------------------------|
D|--------------5/7--------5--------7--------9-----|
A|--------------3/5--------3--------5--------7-----|
E|-----0-0-0--0------0--0-----0--0-----0--0--------|
       . . .  .      .  .     .  .     .  .

e|-------------------------------------------------|
B|-------------------------------------------------|
G|-------------------------------------------------|
D|--------------5/7--------5--------7--------5-----|
A|--------------3/5--------3--------5--------3-----|
E|-----0-0-0--0------0--0-----0--0-----0--0--------|
       . . .  .      .  .     .  .     .  .

e|-------------------------------------------------|
B|-------------------------------------------------|
G|-------------------------------------------------|
D|--------------5/7--------7--------5--------9-----|
A|--------------3/5--------5--------3--------7-----|
E|-----0-0-0--0------0--0-----0--0-----0--0--------|
       . . .  .      .  .     .  .     .  .

e|-------------------------------------------------|
B|-------------------------------------------------|
G|-------------------------------------------------|
D|--------------5/7--------5--------7--------5-----|
A|--------------3/5--------3--------5--------3-----|
E|-----0-0-0--0------0--0-----0--0-----0--0--------|
       . . .  .      .  .     .  .     .  .

e|-------------------------------------------------|
B|-------------------------------------------------|
G|-------------------------------------------------|
D|--------------5/7--------9--------5--------7-----|
A|--------------3/5--------7--------3--------5-----|
E|-----0-0-0--0------0--0-----0--0-----0--0--------|
       . . .  .      .  .     .  .     .  .

e|-------------------------------------------------|
B|-------------------------------------------------|
G|-------------------------------------------------|
D|--------------5/7--------5--------7--------5-----|
A|--------------3/5--------3--------5--------3-----|
E|-----0-0-0--0------0--0-----0--0-----0--0--------|
       . . .  .      .  .     .  .     .  .

e|-------------------------------------------------|
B|-------------------------------------------------|
G|-------------------------------------------------|
D|--------------5/7--------5--------7--------9-----|
A|--------------3/5--------3--------5--------7-----|
E|-----0-0-0--0------0--0-----0--0-----0--0--------|
       . . .  .      .  .     .  .     .  .

e|-------------------------------------------------------------|
B|-------------------------------------------------------------|
G|-------------------------------------------------------------|
D|--------------5----------6----------7-----8-----9-----10-----|
A|--------------3----------4----------5-----6-----7-----8------|
E|-----0-0-0--0---0-0-0--0---0-0-0--0---0-0---0-0---0-0--------|
       . . .  .   . . .  .   . . .  .   .  .  . .   . .          x4

e|-----------------------------------------------------|
B|-----------------------------------------------------|
G|-----------------------------------------------------|
D|--------------5/7--------5--------7--------5---------|
A|--------------3/5--------3--------5--------3---------|
E|-----0-0-0--0------0--0-----0--0-----0--0------------|
       . . .  .      .  .     .  .     .  .

e|---------------------------------------------------------------------------|
B|---------------------------------------------------------------------------|
G|---------------------------------------------------------------------------|
D|--------------5/7--------5--------7--------9-----------7-----------5-------|
A|--------------3/5--------3--------5--------7-----------5-----------3-------|
E|-----0-0-0--0------0--0-----0--0-----0--0----------------------------------|
       . . .  .      .  .     .  .     .  .

e|-----------------------------------|
B|-----------------------------------|
G|-----------------------------------|
D|-----------5--------7--------9-----|
A|-----------3--------5--------7-----|
E|-----0--0-----0--0-----0--0--------|
       .  .     .  .     .  .

e|----------------------------------------------------------------------|
B|----------------------------------------------------------------------|
G|----------------------------------------------------------------------|
D|-----9-----------5-----------7----------------5--------7--------9-----|
A|-----7-----------3-----------5----------------3--------5--------7-----|
E|----------------------------------------0--0-----0--0-----0--0--------|
                                          .  .     .  .     .  .

************************************

| /   slide up
| \   slide down
| h   hammer-on
| p   pull-off
| ~   vibrato
| +   harmonic
| x   Mute note
| b   Bend
| pb  Pre-bend
| br  Bend release
| pbr Pre-bend release
| brb Bend release bend

************************************
Добавлено: 23.04.2016
Другие материалы по этой песне:
  • Аккорды и текст

Страница создана 23.04.2016
http://primanota.ru/misc-unsigned-bands/plamen-1st-try-chords.htm
Привет, Гость.
Предлагаем пройти революционный курс по гитаре.
Подарок от PrimaNota.Ru, забирай!