PrimaNota.ru - самый крупный в мире бесплатный архив песенных текстов, аккордов, табулатур и нот


Misc Unsigned Bands - Practise - таба, видео

Регистрация Запомнить меня
Войти через:  Facebook Google Twitter Vk Yandex Mail.ru

Misc Unsigned Bands - Practise - таба, видео

Печатать
Просмотров: 64
just a finger practise to learn.


  1     A     2     A     3     A     4     A      1     A     2     A     3     A     4     A
e|------------------------------------------------|------------------------------------------------|
B|---5--------------------------------------------|---5--------------------------------------------|
G|--4---4-----------------------------------------|--4---4-----------------------------------------|
D|-5----------5-----------------------------------|-5----------5-----------------------------------| x2
A|3-----------------------------------------------|3-----------------------------------------------|
E|------------------5-----------------------------|------------------5-----------------------------|

  1     A     2     A     3     A     4     A      1     A     2     A     3     A     4     A
e|---3--------------------------------------------|---3--------------------------------------------|
B|--5---5-----------------------------------------|--5---5-----------------------------------------|
G|-4----------4-----------------------------------|-4----------4-----4-----------------------------|
D|------------------------------------------------|------------------3-----------------------------| 
A|3-----------------------------------------------|3-----------------3-----------------------------|
E|------------------5-----------------------------|------------------------------------------------|

  1     A     2     A     3     A     4     A      1     A     2     A     3     A     4     A
e|---3--------------------------------------------|---3--------------------------------------------|
B|--5---5-----------------------------------------|--5---5-----------------------------------5-----|
G|-4----------4-----------------------------------|-4----------4-----4--------------------4--------|
D|------------------------------------------------|------------------3-----------------5-----------| 
A|3-----------------------------------------------|3-----------------3-----------------------------|
E|------------------5-----------------------------|------------------------------------------------|

  1     A     2     A     3     A     4     A      1     A     2     A     3     A     4     A
e|---5--------------------------------------------|---5--------------5-----------------------------|
B|--7---7-----------7-----------------------------|--7---7-----------7-----------------------------|
G|-6----------6-----6-----------------------------|-6----------6-----6-----------------------------|
D|------------------5-----------------------------|------------------5-----------------------------| 
A|5-----------------------------------------------|5-----------------------------------------------|
E|------------------7-----------------------------|------------------------------------------------|

  1     A     2     A     3     A     4     A      1     A     2     A     3     A     4     A
e|---5--------------------------------------------|---5--------------5-----------------5-5---------|
B|--7---7-----------7-----------------------------|--7---7-----------7-----------------7-7---------|
G|-6----------6-----6-----------------------------|-6----------6-----6-----------------------------|
D|------------------5-----------------------------|------------------5-----------------------------| 
A|5-----------------------------------------------|5-----------------------------------------------|
E|------------------7-----------------------------|------------------------------------------------|

  1     A     2     A     3     A     4     A      1     A     2     A     3     A     4     A
e|---5--------------------------------------------|---5--------------6-----------------------------|
B|--7---7-----------------------------------------|--7---7-----------8-----------------------------|
G|-6----------5-----7-----------------------------|-6----------6-----7-----------------------------|
D|------------------8-----------------------------|------------------------------------------------|
A|5-----------------6-----------------------------|5-----------------------------------------------|
E|------------------------------------------------|------------------------------------------------|

  1     A     2     A     3     A     4     A      1     A     2     A     3     A     4     A
e|---5--------------------------------------------|---5--------------------------------------------|
B|--7---7-----------------------------------------|--7---7-----------6-----------------------------|
G|-6----------5-----7-----------------------------|-6----------6-----8-----------------------------|
D|------------------8-----------------------------|------------------8-----------------------------|
A|5-----------------6-----------------------------|5-----------------------------------------------|
E|------------------------------------------------|------------------------------------------------|

  1     A     2     A     3     A     4     A      1     A     2     A     3     A     4     A
e|------------------------------------------------|------------------------------------------------|
B|------------6-----------------6-----------------|6-----------------6-----------------6-----------|
G|------8-----------------8-----------------8-----|------------8-----------------8-----------------|
D|8-----------------7-----------------6-----------|------5-----------------4-----------------------|
A|------------------------------------------------|------------------------------------------8-----|
E|------------------------------------------------|------------------------------------------------|

  1     A     2     A     3     A     4     A      1     A     2     A     3     A     4     A
e|------------------------------------------------|------------------------------------------------|
B|------6-----------------6-----------------6-----|------------6-----------------6-----------------|
G|8-----------------8-----------------8-----------|------8-----------------8-----------------8-----|
D|------------------------------------------------|------------------------------------------------|
A|------------7-----------------6-----------------|5-----------------5-----------------4-----------|
E|------------------------------------------------|------------------------------------------------|

  1     A     2     A     3     A     4     A      1     A     2     A     3     A     4     A
e|------------------------------------------------|------------------------------------------------|
B|6-----------------6-----------------6-----------|------6-----------------6-----------------6-----|
G|------------8-----------------8-----------------|8-----------------8-----------------8-----------|
D|------------------------------------------------|------------------------------------------------|
A|------------------------------------------------|------------------------------------------------|
E|------8-----------------7-----------------6-----|------------5-----------------4-----------------|

  1     A     2     A     3     A     4     A      1     A     2     A     3     A     4     A
e|------------1-----------------1-----------------|1-----------------------------------------------|
B|------4-----------------4-----------------4-----|------------------------------------------------|
G|------------------------------------------------|------------------------------------------------|
D|------------------------------------------------|------------------------------------------------|
A|------------------------------------------------|------------------------------------------------|
E|3-----------------2-----------------1-----------|------------------------------------------------|
 
  1     A     2     A     3     A     4     A      
e|------------1-----------------------------------|
B|------4-----------------------------------------|
G|------------------------------------------------|
D|------------------------------------------------|
A|------------------------------------------------|
E|1-----------------------------------------------|




************************************

| /   slide up
| \   slide down
| h   hammer-on
| p   pull-off
| ~   vibrato
| +   harmonic
| x   Mute note
| b   Bend
| pb  Pre-bend
| br  Bend release
| pbr Pre-bend release
| brb Bend release bend

************************************
Добавлено: 25.04.2016
Другие материалы по этой песне:
  • Аккорды и текст

Страница создана 25.04.2016
http://primanota.ru/misc-unsigned-bands/practise-chords.htm
Привет, Гость.
Предлагаем пройти революционный курс по гитаре.
Подарок от PrimaNota.Ru, забирай!