PrimaNota.ru - самый крупный в мире бесплатный архив песенных текстов, аккордов, табулатур и нот


Misc Unsigned Bands - Protection By Movements - таба, видео

Регистрация Запомнить меня
Войти через:  Facebook Google Twitter Vk Yandex Mail.ru

Misc Unsigned Bands - Protection By Movements - таба, видео

Печатать
Просмотров: 51
-------------------------------------------------------------------------------
                            Protection by Movements
-------------------------------------------------------------------------------
Tabbed by:Alex Z. 

These is just the tab I found out. Its nothing professional. Have fun....

Tuning:e a d g b e 

s: slide up/down to 

Intro / Chorus 
e|---------------------------------------------------------------------------|
B|---------------------------------------------------------------------------|
G|----7---7-------7-s----11---11----11 s---------4---4-----------------------|
D|----0---0-------0-s-----0----0-----0 s---------0---0-----------------------|
A|----5---5-------5-s-----9----9-----9 s---------5---5-----------------------|
E|----7---7-------7-S----10---10----10-s---------3---3---let it ring....-----|

Verse Part 1  (listen to the song, this is difficult to tab)
e|-------------------------------/--------------------------------------------|
B|12--12--10---5--7----7---3---  /--------------------------------------------
D|-------------------------------/--------------------------------------------|
A|-------------------------------/--------------------------------------------|
E|-------------------------------/--------------------------------------------|

Part 2 
e|---------------------------------------------------------------------------|
B|-12---12--10--15---------15---------15-----17----------14------------------|
G|-----------------14--14------14--14----14-------14-14----14--14------------|
D|---------------------------------------------------------------------------|
A|---------------------------------------------------------------------------|
E|---------------------------------------------------------------------------|

Verse: Part 1,Part 2, Part 1, Part 2 and then go to Prechorus
e|---------------------------------------------------------------------------|
B|--10----12------10---10----------------------------------------------------|
G|---------------------------------------------------------------------------|
D|---------------------------------------------------------------------------|
A|---------------------------------------------------------------------------|
E|---------------------------------------------------------------------------|

Bridge: (I carry on ...)(2x)
e|---------------------------------------------------------------------------|
B|---------------------------------------------------------------------------|
G|---4--4--4--4----44--s--6-6---66-----7--7----------------------------------|
D|---0--0--0--0----00--s--0-0---00-----0--0----------------------------------|
A|---5--5--5--5----55--s--7-7---77-----5--5----------------------------------|
E|---3--3--3--3----33--s--5-5---55-----7--7----------------------------------|

Добавлено: 25.04.2016
Другие материалы по этой песне:
  • Аккорды и текст

Страница создана 25.04.2016
http://primanota.ru/misc-unsigned-bands/protection-by-movements-chords.htm
Привет, Гость.
Предлагаем пройти революционный курс по гитаре.
Подарок от PrimaNota.Ru, забирай!