PrimaNota.ru - самый крупный в мире бесплатный архив песенных текстов, аккордов, табулатур и нот


Misc Unsigned Bands - Pedro Gabriel Amaral - A Mile Ago Pt 2 - таба

Регистрация Запомнить меня
Войти через:  Facebook Google Twitter Vk Yandex Mail.ru

Misc Unsigned Bands - Pedro Gabriel Amaral - A Mile Ago Pt 2 - таба

Печатать
Просмотров: 31
-------------------------------------------------------------------------------
            A MILE AGO, PT. 2 (SOLO) - Pedro Gabriel Amaral
-------------------------------------------------------------------------------

Tuning: EADGBe
Capo 2nd fret
  
e|---------------(12)-------------------------------------(12)---------------|
B|-----------(12)----(12)--------------------------(7)-(7)-------------------|
G|-------(12)------------(12)---------(7)-------(5)--------------------------|
D|---------------------------(12)--(7)-------(5)-----------------------------|
A|---------------------------------------(7)---------------------------------|
E|-(12)----------------------------------------------------------------------|

e|---------------(12)--------------------------------------------------------|
B|-----------(12)----(12)----------------------------------------------------|
G|-------(12)------------(12)---------(7)-------(5)-(7)-(7)------------------|
D|---------------------------(12)--(7)-------(5)-----------------------------|
A|---------------------------------------(7)---------------------------------|
E|-(12)----------------------------------------------------------------------|


e|---------------------------------------------------------------------------|
B|-8---8---8---8---5---5---8---8---6---6---8---6---5---5---5---5-------------|
G|--7---7---7---7---5---5---5---5---7---7---7---7---5---5---5---5------------|
D|---7---7---7---7---5---5---5---5---7---7---7---7---8---8---8---8-----------|
A|---------------------------------------------------------------------------|
E|---------------------------------------------------------------------------|

e|---------------------------------------------------------------------------|
B|-6---6---6---6---5---5---5---5---6---6---6---6---\--2----3----5------6-----|
G|--7---7---7---7---5---5---5---5---5---5---5---5--\----0----0----0----5-----|
D|---5---5---5---5---5---5---5---5---5---5---5---5-\------2----2----0--7-----|
A|---------------------------------------------------------------------8-----|
E|---------------------------------------------------------------------------|


(x) stands for harmonic
Добавлено: 23.04.2016
Другие материалы по этой песне:
  • Аккорды и текст

Страница создана 23.04.2016
http://primanota.ru/misc-unsigned-bands/pedro-gabriel-amaral-a-mile-ago-pt-2-chords.htm
Привет, Гость.
Предлагаем пройти революционный курс по гитаре.
Подарок от PrimaNota.Ru, забирай!