PrimaNota.ru - самый крупный в мире бесплатный архив песенных текстов, аккордов, табулатур и нот


Misc Unsigned Bands - Pain Cylinder - No Mercy - бас-таба, видео

Регистрация Запомнить меня
Войти через:  Facebook Google Twitter Vk Yandex Mail.ru

Misc Unsigned Bands - Pain Cylinder - No Mercy - бас-таба, видео

Печатать
Просмотров: 101
Уроки эстрадного вокала в Санкт-Петербурге
-------------------------------------------------------------------------------
                             No Mercy - Pain Cylinder
-------------------------------------------------------------------------------

Artist website: http://www.paincylinder.com/ 
Album: 2012
Tabbed by: Victor Van Puyenbroeck

Bass Guitar TAB

Tuning: EADG (standard)

0:00 Intro
0:28 Pre-chorus
0:40 Chorus
1:21 Intro
1:47 Pre-chorus
2:00 Chorus
2:40 Bridge
3:07 Pre-chorus
3:21 chorus
3:47 Outro

-Intro-

G|-------------------------------------------------------------|
D|-------------------------------------------------------------|  x4
A|-------------------------10-101010-11-111111-8-888-10-101010-|
E|-8-888-8-888-8-888-8-888-------------------------------------|

-Pre-chorus-

G|---------------------------------|
D|---------------------------------|  x2
A|---------------------------------|
E|-8-------6-------5-------3---6---|

-Chorus-

G|-------------------------------------|
D|-------------------------------------|
A|-------------------------------------|
E|---------\66-666-6-55-555-5-33-366-6-|

G|-------------------------------------|
D|-------------------------------------|
A|-------------------------------------|
E|-88-888-8-66-666-6-55-555-5-33-366-6-|

G|---------------------------------|
D|---------------------------------| x2
A|---------------------------------|
E|-888-888-666-666-555-555-333-666-|

G|--------------------|
D|--------------------| x2
A|---------8---8-11---|
E|-8---6h8------------|

-Bridge-

G|---------------------------------------------------------|
D|---------------------------------------------------------| x2
A|-3-333-3-333-5-555-6-666-8-888-8-888-11-111111-11-111111-|
E|---------------------------------------------------------|

G|-------------------------------------------------|
D|-------------------------------------------------| x2
A|-------------------------------------------------|
E|-8-888-8-888-6-666-6-666-5-555-5-555-3-333-6-666-|

-Outro-

G|-------------------------|
D|-------------------------|
A|---------6---8-----------|
E|-8---------------8-------|

| /  slide up
| \  slide down
| h  hammer-on
| p  pull-off
| ~  vibrato
| +  harmonic
| x  Mute note
===============================================================================
Добавлено: 09.06.2013
Другие материалы по этой песне:
  • Аккорды и текст

Страница создана 09.06.2013
http://primanota.ru/misc-unsigned-bands/pain-cylinder-no-mercy-chords.htm
Привет, Гость.
Предлагаем пройти революционный курс по гитаре.
Подарок от PrimaNota.Ru, забирай!