PrimaNota.ru - самый крупный в мире бесплатный архив песенных текстов, аккордов, табулатур и нот


Misc Unsigned Bands - Palm Trees Power Lines - I Dont Think She Likes Me - бас-таба

Регистрация Запомнить меня
Войти через:  Facebook Google Twitter Vk Yandex Mail.ru

Misc Unsigned Bands - Palm Trees Power Lines - I Dont Think She Likes Me - бас-таба

Печатать
Просмотров: 45
Intro
G----------------------------------|
D----------------------------------|
A-22222222-------------------------|  2x
E---------222222224444444400000000-|

Verse
G-----------------------------------|
D-----------------------------------|
A-22222222--------------------------|
E---------22222222/4444444400000000-|

G---------------------------------------------|
D---------------------------------------------|
A-22222222------------------------------------|
E----------22222222/44444444/1212121212121212-| (12s not 1, 2s)

G------------------------------------|
D------------------------------------|
A-22222222---------------------------|  2x
E----------22222222/4444444400000000-|

Pre Chorus
G----------------------------|
D----------------------------|
A----------------------------|
E-0~0~0~000~0~0~000~0~0~000~-

Chorus
G------------------------------------------------------------------|
D------------------------------------------------------------------|
A-2~222~2222222~22-------------------------------------------------|
E-----------------2~222~2222222~224~444~4444444~440~000~0000000~00-|

G------------------------------------------------------------------|
D-----------------4~444~4444444~446~666~6666666~662~222~2222222~22-|
A-2~222~2222222~22-------------------------------------------------|
E------------------------------------------------------------------|

Nanas
G----------------------------------|
D----------------------------------|
A-2~222~22-------------------------|  2x
E---------2~222~224~444~440~000~00-|

(Verse)
(Pre Chorus)
(Chorus)
(Nana's)

Never Give up
G----------------------------------|
D----------------------------------|
A-2~~~~~~~-------------------------|  4x
E---------2~~~~~~~4~~~~~~~0~~~~~~~-|

Guitar Solo
G----------------------------------|
D----------------------------------|
A-22222222-------------------------|  2x
E---------222222224444444400000000-|

(Chorus)
(Nana's)

Outro (final 2 measures)
G----------------------------------|
D---------4~4444436~6666642~222222-|
A-2~222224-------------------------|  2x
E----------------------------------|

Ends on
G-----
D-----
A-2~~~
E-----
Добавлено: 22.10.2013
Другие материалы по этой песне:
  • Аккорды и текст

Страница создана 22.10.2013
http://primanota.ru/misc-unsigned-bands/palm-trees-power-lines-i-dont-think-she-likes-me-chords.htm
Привет, Гость.
Предлагаем пройти революционный курс по гитаре.
Подарок от PrimaNota.Ru, забирай!