PrimaNota.ru - самый крупный в мире бесплатный архив песенных текстов, аккордов, табулатур и нот


Misc Unsigned Bands - Omram Bhagchandani - The Northland - таба

Регистрация Запомнить меня
Войти через:  Facebook Google Twitter Vk Yandex Mail.ru

Misc Unsigned Bands - Omram Bhagchandani - The Northland - таба

Печатать
Просмотров: 46
-------------------------------------------------------------------------------
                             SONG NAME - Band Name
-------------------------------------------------------------------------------
Tabbed by:
E-mail:

Tuning: Standard Capo 7

e|-3-br---------------3-br----------------3-br----------------3-br----------------|
B|-------3-br---------------3-br----------------3-br----------------3-br----3-0---|
G|-------------2-0-0--------------2-0-2---------------2-0-0---------------2-------|   2x
D|--------------------------------------------------------------------------------|
A|--------------------------------------------------------------------------------|
E|--------------------------------------------------------------------------------|

e|-6-3---------------6-3---------------6-3---------------6-3-----------------|
B|------6-3---------------6-3---------------6-3---------------6-3----6-3-----|
G|-----------5-3-3-------------5-3-5-------------5-3-3-------------5---------|
D|---------------------------------------------------------------------------|
A|---------------------------------------------------------------------------|
E|---------------------------------------------------------------------------|

e|---------------------------------------------------------------------------|
B|---------------------------------------------------------------------------|
G|---------------------------------------------------------------------------|
D|---------------------------------------------------------------------------|
A|---------------------------------------------------------------------------|
E|-5-pb----------------------------------------------------------------------|




************************************

| /   slide up
| \   slide down
| h   hammer-on
| p   pull-off
| ~   vibrato
| +   harmonic
| x   Mute note
| b   Bend
| pb  Pre-bend
| br  Bend release
| pbr Pre-bend release
| brb Bend release bend

************************************
Добавлено: 23.04.2016
Другие материалы по этой песне:
  • Аккорды и текст

Страница создана 23.04.2016
http://primanota.ru/misc-unsigned-bands/omram-bhagchandani-northland-chords.htm
Привет, Гость.
Предлагаем пройти революционный курс по гитаре.
Подарок от PrimaNota.Ru, забирай!