PrimaNota.ru - самый крупный в мире бесплатный архив песенных текстов, аккордов, табулатур и нот


Misc Unsigned Bands - Okke Punt - Mr Help Me Out - таба

Регистрация Запомнить меня
Войти через:  Facebook Google Twitter Vk Yandex Mail.ru

Misc Unsigned Bands - Okke Punt - Mr Help Me Out - таба

Печатать
Просмотров: 47
-------------------------------------------------------------------------------
                             MR. HELP ME OUT - OKKE PUNT
-------------------------------------------------------------------------------
Tabbed by: Alex Ummelen
E-mail: ummelen22@hotmail.com

Tuning: Standard, CAPO ON THE 6TH FRET

This is my first tab ever. I heard this song on the tv and couldn't find a tab so i 
tried it myself.
Hope you guys like it!
This is a song of one of the participants (and probably winner) of the 2015 season of 
"De beste singer songwriter"
in the Netherlands. His name is Okke Punt and he has an amazing voice, you can find the 
original song through
this link: https://www.youtube.com/watch?v=aCz0iRz24HA


The Verse has the following chords: Am - C - G


The chorus has the following chords: F - Am - G - C


Im not sure about the bridge tab but the chords played in the bridge are: F - Am - D/F# 
- G

INTRO

e|-----0--0---------0--0-----0--0-----3--3------3--3-----3--3-----3--3-------|
B|-----1--1---------1--1-----1--1-----3--3------3--3-----3--3-----3--3-------|
G|-----2--2---------0--0-----0--0-----0--0------0--0-----0--0-----0--0-------|  2x
D|-----2--2---------2--2--2--2--2-----0--0---0--0--0-----0--0--0--0--0-------|
A|--0--------0-2-3--3--3-----3--3-----2--2------2--2-----2--2-----2--2-------|
E|---------------------------------3--3--3------3--3--3--3--3-----3--3-------|

e|-----3--3-----3--3---------------------------------------------------------|
B|-----3--3-----3--3---------------------------------------------------------|
G|-----0--0-----0--0---------------------------------------------------------|
D|-----0--0--0--0--0---------------------------------------------------------|
A|-----2--2-----2--2---------------------------------------------------------|
E|--3--3--3-----3--3--3------------------------------------------------------|

VERSE

Continue this riff the entire verse:

             Am           C                 G         G        G        G

e|-----------0--0---------0--0-----0--0-----3--3------3--3-----3--3-----3--3-------|
B|-----------1--1---------1--1-----1--1-----3--3------3--3-----3--3-----3--3-------|
G|-----------2--2---------0--0-----0--0-----0--0------0--0-----0--0-----0--0-------|
D|-----------2--2---------2--2--2--2--2-----0--0---0--0--0-----0--0--0--0--0-------|
A|--------0--------0-2-3--3--3-----3--3-----2--2------2--2-----2--2-----2--2-------|
E|---------------------------------------3--3--3------3--3--3--3--3-----3--3-------|


          Am         C
There's a picture of shimmering lights

     G                   G
in a wooden house in the woods outside

      Am
and I wonder...

C              G            G
Where should I go?

         Am                    C
You see, in this house lives a friend of mine

    G                      G
Mr. Help me out 'cause I'm doing fine

      Am               C            G            G
and I need to speak to him tonight


CHORUS


                         Oh my God...
       F        F        F        F        C        C        C        C
e|-----1--1-----1--1-----1--1-----1--1-----0--0-----0--0-----0--0-----0--0---|
B|-----1--1-----1--1-----1--1-----1--1-----1--1-----1--1-----1--1-----1--1---|
G|-----2--2--2--2--2-----2--2--2--2--2-----0--0-----0--0-----0--0-----0--0---|
D|--3--3--3-----3--3--3--3--3-----3--3-----2--2--2--2--2-----2--2--2--2--2---|
A|-----3--3-----3--3-----3--3-----3--3--3--3--3-----3--3--3--3--3-----3--3---|
E|-----1--1-----1--1-----1--1-----1--1---------------------------------------|


                         His house has burned down to the ground
       F        F        F        F        C        C        G        G
e|-----1--1-----1--1-----1--1-----1--1-----0--0-----0--0-----3--3-----3--3---|
B|-----1--1-----1--1-----1--1-----1--1-----1--1-----1--1-----3--3-----3--3---|
G|-----2--2--2--2--2-----2--2--2--2--2-----0--0-----0--0-----0--0-----0--0---|
D|--3--3--3-----3--3--3--3--3-----3--3-----2--2--2--2--2-----0--0--0--0--0---|
A|-----3--3-----3--3-----3--3-----3--3--3--3--3-----3--3-----2--2-----2--2---|
E|-----1--1-----1--1-----1--1-----1--1--------------------3--3--3-----3--3---|


                         What do I do now?                            Guess I'll
       F        F        F        F        C        C        C        C
e|-----1--1-----1--1-----1--1-----1--1-----0--0-----0--0-----0--0-----0--0---|
B|-----1--1-----1--1-----1--1-----1--1-----1--1-----1--1-----1--1-----1--1---|
G|-----2--2--2--2--2-----2--2--2--2--2-----0--0-----0--0-----0--0-----0--0---|
D|--3--3--3-----3--3--3--3--3-----3--3-----2--2--2--2--2-----2--2--2--2--2---|
A|-----3--3-----3--3-----3--3-----3--3--3--3--3-----3--3--3--3--3-----3--3---|
E|-----1--1-----1--1-----1--1-----1--1---------------------------------------|


       Keep on           feeling           fine                       Now that
       F        F        G        G        Am       Am       Am       Am
e|-----1--1-----1--1-----3--3-----3--3-----0--0-----0--0-----0--0-----0--0---|
B|-----1--1-----1--1-----3--3-----3--3-----1--1-----1--1-----1--1-----1--1---|
G|-----2--2--2--2--2-----0--0-----0--0-----2--2-----2--2-----2--2-----2--2---|
D|--3--3--3-----3--3-----0--0--0--0--0-----2--2--2--2--2-----2--2--2--2--2---|
A|-----3--3-----3--3-----2--2-----2--2--0--0--0-----0--0--0--0--0-----0--0---|
E|-----1--1-----1--1--3--3--3-----3--3---------------------------------------|


       He Has            Left              My life
       F        F        G        G        C        C        C
e|-----1--1-----1--1-----3--3-----3--3-----0--0-----0--0-----0--0------------|
B|-----1--1-----1--1-----3--3-----3--3-----1--1-----1--1-----1--1------------|
G|-----2--2--2--2--2-----0--0-----0--0-----0--0-----0--0-----0--0------------|
D|--3--3--3-----3--3-----0--0--0--0--0-----2--2--2--2--2-----2--2------------|
A|-----3--3-----3--3-----2--2-----2--2--3--3--3-----3--3--3--3--3--3--2--0---|
E|-----1--1-----1--1--3--3--3-----3--3---------------------------------------|

END CHORUS

VERSE 2:

Same chords as in the first verse.

Footsteps on the black and snow
reveal the path that my messiah chose
and I wonder...
Where should I go?

You see maybe I should let him walk away
from all the mistakes I've made
Maybe he will find his way


and then the same chorus again.

As mentioned at the top, I still have to figure out the tabs for the bridge but the 
chords are as follows:

F - Am - D/F# - G

Good Luck and leave comments and tips below ofcourse :)


************************************

| /   slide up
| \   slide down
| h   hammer-on
| p   pull-off
| ~   vibrato
| +   harmonic
| x   Mute note
| b   Bend
| pb  Pre-bend
| br  Bend release
| pbr Pre-bend release
| brb Bend release bend

************************************
Добавлено: 19.10.2015
Другие материалы по этой песне:
  • Аккорды и текст

Страница создана 19.10.2015
http://primanota.ru/misc-unsigned-bands/okke-punt-mr-help-me-out-chords.htm
Привет, Гость.
Предлагаем пройти революционный курс по гитаре.
Подарок от PrimaNota.Ru, забирай!