PrimaNota.ru - самый крупный в мире бесплатный архив песенных текстов, аккордов, табулатур и нот


Misc Unsigned Bands - Osamuraisan - Kisaragi Attention - таба

Регистрация Запомнить меня
Войти через:  Facebook Google Twitter Vk Yandex Mail.ru

Misc Unsigned Bands - Osamuraisan - Kisaragi Attention - таба

Печатать
Просмотров: 67
                 -------------------------------------------------------------------------------
                                 KISARAGI ATTENTION on guitars - Osamuraisan
                 -------------------------------------------------------------------------------

Guitar 1 = rhythm (capo 3)
Guitar 2 = solo
Guitar 3 = Coming soon ? maybe.

This isn't exactly how Osamuraisan plays it but it's close. I think.
Some parts i didn't put in cause it's all repetitive.
And i got lazy naming the chords but you guys can figure that out right ?

Original video here: https://www.youtube.com/watch?v=Xik3L6X8r8s

 Guitar 1 
e|----------------------------------------------------------------------------------------------|
B|----------------------------------------------------------------------------------------------|
G|----------------------------------------------------------------------------------------------|
D|-------------------------------------------------------------------------1h3-1----------------|
A|---------------------3h5-3---------------------3-----3-x-1h3-3-x-1h3-3-x-------3-x-1h3-3-x----|
E|-5-x-3h5-5-x-3h5-5-x-------5-x-3h5-5-x-3h5-5-x---0-3------------------------------------------|

e|------------------------------------------------------------------|
B|------------------------------------------------------------------|
G|------------------------------------------------------------------|
D|---------1--------------------------------------------------------|
A|-1h3-3-x---3------------------------------------------------------|
E|------------------------------------------------------------------|

e|------1----1------------------1------1------|
B|-1----1----1-----------1------1------1------|
G|------2----1------------------2------2------|
D|-2----3----2-----2-----2------0------0------|
A|-3----3----3-----2--------------------------|
E|------1----1-------------------------3------|
   C    F    Fm    Em    Am7    Dm7    Dm7/G

e|-------------------------------------------------------------------------|
B|-----1-------------------------------------------------------------------|
G|-----------------[4 TIMES]-----------------------------------------------|
D|-----2-------------------------------------------------------------------|
A|-----3-------------------------------------------------------------------|
E|-------------------------------------------------------------------------|
       C

e|-1----1---------1----1---------1--------------1-------------|
B|-1----1----1----1----1----1----1-------1------2-------------|
G|-2----1---------2----1---------2--------------2-------------|
D|-3----3----2----3----3----2----3-------2------0-------------|
A|-3----3----3----3----3----3----3---2------------------------|
E|-1----1---------1----1---------1---3------------------------|
   F    Fm   C    F    Fm   C    F   G   Am7    Dm7

e|-4----3-----------------------------------------------------|
B|-4----3---------<12>----------------------------------------|
G|-5----4---------<12>----------------------------------------|
D|-4----3-----------------------------------------------------|
A|-6----5-----------------------------------------------------|
E|-4----3----3/10---------------------------------------------|

Chorus
e|------2----1----4----2----2----2----2--------------|
B|-2----3----1----5----2----2----2----2--------------|
G|-2----2----2----4----2----2----2----2--------------|
D|-2---------0----6----2----4----2----2--------------|
A|----------------4----4----2----2----2--------------|
E|-2----2--------------2----2----2----0--------------|

e|----------------------------------------------------------------------------------------------|
B|----------------------------------------------------------------------------------------------|
G|----------------------------------------------------------------------------------------------|
D|-------------------------------------------------------------------------1h3-1----------------|
A|---------------------3h5-3---------------------3-----3-x-1h3-3-x-1h3-3-x-------3-x-1h3-3-x----|
E|-5-x-3h5-5-x-3h5-5-x-------5-x-3h5-5-x-3h5-5-x---0-3------------------------------------------|

e|------------------------------------------------------------------|
B|------------------------------------------------------------------|
G|------------------------------------------------------------------|
D|---------1--------------------------------------------------------|
A|-1h3-3-x---3------------------------------------------------------|
E|------------------------------------------------------------------|


e|-----------------1---------7-----------6---------5----------3--------------|
B|------5----------1---------8-----------7---------6----------3--------------|
G|------5----------2---------7-----------6---------5----------4--------------|
D|------5----------1---------9-----------8---------7----------3--------------|
A|------3----------3---------7-----------6---------5----------5--------------|
E|-----------------1------------------------------------------3--------------|

e|------3----------2---------4-----------2----------------------------4-----5-------7--|
B|------2----------2---------5-----------2--------------------2-------4-----5-------7--|
G|------3----------2---------4-----------2----[Repeat X2]-----2-------4-----5-------7--|
D|-----------------2---------6-----------2--------------------2-------6-----7-------7--|
A|-----------------2---------4-----------4--------------------2-------4-----5-------7--|
E|------2----------0---------------------2--------------------0-------0-----0-------0--|

e|-------------------------------------------------------------------------------------|
B|-------------------------------------------------------------------------------------|
G|-------------------5/7--5-----------------------------------------------5/7--5-------|
D|-------------------5/7--5-----------------------------------------------5/7--5-------|
A|-------------------3/5--3--------------------3--------------------------3/5--3-------|
E|-5-x-3h5-5-x-3h5-x---------5-x-3h5-5-x-3h5-5---0-3--5-x-3h5-5-x-3h5-5-x--------------|

e|-------------------------------------------------------------------|
B|-------------------------------------------------------------------|
G|-------------------------------------------------------------------|
D|-------------------------------------------------------------------|
A|-------------------3-----------------------------------------------|
E|-5-x-3h5-x-3h5-5-x---5/0-------------------------------------------|

Guitar 2
e|-------------------------------------------------------------------------|
B|-------------------------------------------------------------------------|
G|--8--x--6/8--8--x--6/8--8--x--6/8--6--8--x--6/8--8--x--6/8--8--x--11--8--|
D|--8--x--6/8--8--x--6/8--8--x--4/6--4--8--x--6/8--8--x--6/8--8--x--11--8--|
A|--6--x--4/6--6--x--4/6--6--x----------6--x--4/6--6--x--4/6--6--x--9---6--|
E|-------------------------------------------------------------------------|

e|----------------------------------------------------------------------------------------------|
B|-8----------------8----------8--------------8-------------------------------------------------|
G|-------------8-10---10-8-10------------8-10---10-8-7------7-10-8-------8-10-11-10-8-8-11-10---|
D|---10-8-8h10-------------------10-8h10---------------10-10-------8/10-------------------------|
A|----------------------------------------------------------------------------------------------|
E|----------------------------------------------------------------------------------------------|

e|----------------------------------------------------------------------------------------------|
B|-8----------------8---------8--------------8---------------11-13------------------------------|
G|-------------8-10---10-8-10-----------8-10---10-8-10/12-12-------10\11-8-8--------------------|
D|---10-8-8h10------------------10-8h10-------------------------------------10-10---------------|
A|----------------------------------------------------------------------------------------------|
E|----------------------------------------------------------------------------------------------|

e|-------------------------------------------------------------------|
B|-------------------------------------------------------------------|
G|--8-8-8-10-10/12-8-8-10-8------------------------------------------|
D|-------------------------------------------------------------------|
A|-------------------------------------------------------------------|
E|-------------------------------------------------------------------|

e|-------------------------------------------------------------------|
B|------------8--------------------------------8---------------11-8--|
G|-10-10-8-10---10-8-------8-10/12--10-10-8-10---8-8-8-8-10-8--------|
D|-------------------8-10--------------------------------------------|
A|-------------------------------------------------------------------|
E|-------------------------------------------------------------------|

e|--------8-8----8-----------------------------------------------------|
B|---8-11-----11---8------8-8----8-------------------------------------|
G|-8-----------------10-8-----10---10-8----8-8-8----8-10-10/11-10-8----|
D|--------------------------------------10-------10--------------------|
A|---------------------------------------------------------------------|
E|---------------------------------------------------------------------|

e|-----------------------------------11-13-14-13-11------------------|
B|-----------------------------11-13----------------13-11------------|
G|--------8-10-11-10-8-8-10/12---------------------------------------|
D|-10-8-9------------------------------------------------------------|
A|-------------------------------------------------------------------|
E|-------------------------------------------------------------------|

Chorus
e|-------------------------------------------------------------------|
B|----13-12-13----13/15-13-------13-15-16-15-13----------------12-13-|
G|-12----------13----------12-14----------------14-12-12-12-14-------|
D|-------------------------------------------------------------------|
A|-------------------------------------------------------------------|
E|-------------------------------------------------------------------|

e|---------------------------12--------------------------------------|
B|------------------------13----15-13-15-----------------------------|
G|-------------9-9---------------------------------------------------|
D|-14-12-10-10-----12-10---------------------------------------------|
A|-------------------------------------------------------------------|
E|-------------------------------------------------------------------|

e|----------------------------------------------15-------------------|
B|----13-12-13----13/15-13-------13-15-16-15-13----15-15-15-15-17-15-|
G|-12----------13----------12-14-------------------------------------|
D|-------------------------------------------------------------------|
A|-------------------------------------------------------------------|
E|-------------------------------------------------------------------|

e|-------------------------12----------------------------------------|
B|-13-12-13-------15-13-13----15-13-------12-------------------------|
G|----------14-12-------------------14-12----------------------------|
D|-------------------------------------------------------------------|
A|-------------------------------------------------------------------|
E|-------------------------------------------------------------------|

e|----------------------------------------------------------------------------|
B|----------------------------------------------------------------------------|
G|--8--x--6/8--8--x--6/8--6--x--11/13--11---8--x--6/8--8--x--6/8--8--x--11--8-|
D|--8--x--6/8--8--x--6/8--8--x--11/13--11---8--x--6/8--8--x--6/8--8--x--11--8-|
A|--6--x--4/6--6--x--4/6--8--x--9-/11--9----6--x--4/6--6--x--4/6--6--x--9---6-|
E|----------------------------------------------------------------------------|

e|----------------------------------------------------------------------------|
B|-8----------------8----------8----------------------------------------------|
G|-------------8-10---10-8-10--------------8-10-10/12-10-8-7------------------|
D|---10-8-8h10 ------------------10-8-8h10-------------------10-10------------|
A|----------------------------------------------------------------------------|
E|----------------------------------------------------------------------------|

e|-------------------------------------------------------------------|
B|-------------------------------------------------------------------|
G|-7-10-8------8-10-11/12/13-8------8-8-10---------------------------|
D|--------8/10-----------------8-10----------------------------------|
A|-------------------------------------------------------------------|
E|-------------------------------------------------------------------|

e|--------------------------------------------------------------------------------------11--|
B|-8----------------8----------8-------------11-8------------------11-13----------11-13-----|
G|-------------8-10---10-8-10--------------8------10-8-10/12-11h12-------12-12-12-----------|
D|---10-8-8h10-------------------10-8-8h10--------------------------------------------------|
A|------------------------------------------------------------------------------------------|
E|------------------------------------------------------------------------------------------|

e|----------------------------------------------------------------------------|
B|---------------8-9-10-11-8--------------------------------------------------|
G|-8----8--------------------10-8---------------------------------------------|
D|---10---8-10-8--------------------------------------------------------------|
A|----------------------------------------------------------------------------|
E|----------------------------------------------------------------------------|

e|----------------------------------------------------------------------------|
B|-----13-12-13----13-15-13-------13----13-15-13-------------------12-13------|
G|--12----------12----------12-14----12----------14-12-12-12-12-14------------|
D|----------------------------------------------------------------------------|
A|----------------------------------------------------------------------------|
E|----------------------------------------------------------------------------|

e|----------------------------------------------------------------------------|
B|---------------------------10-----------------------------------------------|
G|-------------12-9-------------12-10-12--------------------------------------|
D|-14-12-10-10------12-10-10--------------------------------------------------|
A|----------------------------------------------------------------------------|
E|----------------------------------------------------------------------------|

e|----------------------------------------------15--------------------------------------|
B|----13-12-13----13/15-13-------13-15-16-15-13----15-15-15-17-15-13-12-13-------15-13--|
G|-12----------13----------12-14-------------------------------------------14-12--------|
D|--------------------------------------------------------------------------------------|
A|--------------------------------------------------------------------------------------|
E|--------------------------------------------------------------------------------------|

e|---8-x-6/8-8-x-6/8-8-x-11-8-----------------------------------------------------------|
B|---8-x-6/8-8-x-6/8-8-x-11-8-----------------------------------------------------------|
G|--------------------------------------------------------------------------------------|
D|--------------------------------------------------------------------------------------|
A|--------------------------------------------------------------------------------------|
E|--------------------------------------------------------------------------------------|

************************************

Also, I like to play an E7 after the weird 2nd fret bar chord cause it sounds right 
but that's just me.
e|-----2------0-------------------------------------------------------------------------|
B|-----2------0-------------------------------------------------------------------------|
G|-----2------1-------------------------------------------------------------------------|
D|-----2------0-------------------------------------------------------------------------|
A|-----2------2-------------------------------------------------------------------------|
E|------------0-------------------------------------------------------------------------|

************************************

| /   slide up
| \   slide down
| h   hammer-on
| p   pull-off
| ~   vibrato
| <>  harmonic
| x   Mute note
| b   Bend
| pb  Pre-bend
| br  Bend release
| pbr Pre-bend release
| brb Bend release bend

************************************
Добавлено: 19.10.2015
Другие материалы по этой песне:
  • Аккорды и текст

Страница создана 19.10.2015
http://primanota.ru/misc-unsigned-bands/osamuraisan-kisaragi-attention-chords.htm
Привет, Гость.
Предлагаем пройти революционный курс по гитаре.
Подарок от PrimaNota.Ru, забирай!