PrimaNota.ru - самый крупный в мире бесплатный архив песенных текстов, аккордов, табулатур и нот


Misc Unsigned Bands - Paceshifters - Drone - таба

Регистрация Запомнить меня
Войти через:  Facebook Google Twitter Vk Yandex Mail.ru

Misc Unsigned Bands - Paceshifters - Drone - таба

Печатать
Просмотров: 81
-------------------------------------------------------------------------------
                             Drone - Paceshifters
-------------------------------------------------------------------------------
Tabbed by: ra.maldonado99
E-mail: ric.maldonado@hotmail.com

Band: Paceshifters
Song: Drone
Album: Breach - 2014

Tuning: Drop D

Intro & verse 1:
e|---------------------------------------------------------------------------|
B|---------------------------------------------------------------------------|
G|---------------------------------------------------------------------------|
D|4--4--4--4--4--4--4--4--4--4--4--4--4--4--4--4--4--4--4--4--4--4--4--4--4--|
A|5--5--5--5--5--5--5--5--5--5--5--5--5--5--5--5--5--5--5--5--5--5--5--5--5--|
D|0--0--0--0--0--0--0--0--0--0--0--0--0--0--0--0--0--0--0--0--0--0--0--0--0--|

Verse 1 bass guitar:
D                                                    B
 I'll do anything, make up your bed I'll clean your floor. I'll be staring at  
       D                                                            B
 your door. If you need something else, give me a call and I'll be there.
                              D         
 Hangin' around if you don't care. I follow you step by step, around the 
                   B                             D
 corner I'll hide myself. I will be your shadow waiting 'till I can get more

Chorus 1: 
1st time: D F B C D F G F 
2nd time: D F B C e|--------------------------|
                  B|--------------------------|
                  G|--------------------------|
                  D|-------------------------4|
                  A|---5-----5---5-5-5-5-5---5|
                  D|0-0-0-0-0-0-0-------0-0--0|

Verse 2 bass guitar:
D                                             B                             
 I'll do anything, you will sense me more and more. Tell me what can I do you
 D                                                     B              
 for. If you need something else. Don't be afraid, I'm everywhere. When you're
                 D                                                        
 alone I will be there. I follow you step by step, around the corner I'll hide
 B                             D
 myself. I will be your shadow waiting 'till I can get more

Chorus 2:
D                                           B                 C  D     F G F    
 Axiously waiting here. Where I am is never clear. Wanted you my dear. 
D                                   F            B                    C           D    F 
I will never give in, no never stop and leave no I'll be your shadow in times of fear

Outro: 
e|---------------------------------------------------------------------------|
B|---------------------------------------------------------------------------|
G|7-7-7-7-7-7-7-7-7-7-7-7-7-------7-7-7-7-7-7-7-7-7-7-7-7-7-------7-7-7-7-7-7|
D|7-7-7-7-7-7-7-7-7-7-7-7-7-4-4-4-7-7-7-7-7-7-7-7-7-7-7-7-7-4-4-4-7-7-7-7-7-7|
A|5-5-5-5-5-5-5-5-5-5-5-5-5-5-5-5-5-5-5-5-5-5-5-5-5-5-5-5-5-5-5-5-5-5-5-5-5-5|
D|--------------------------0-0-0---------------------------0-0-0------------|

e|---------------------------------------------------------------------------|
B|---------------------------------------------------------------------------|
G|7-7-7-7-7-7-7-------7-7-7-7-7-7-7-7----------------------------------------|
D|7-7-7-7-7-7-7-4-4-4-7-7-7-7-7-7-7-7-4-4-4-4-4-4-4-4------------------------|
A|5-5-5-5-5-5-5-5-5-5-5-5-5-5-5-5-5-5-5-5-5-5-5-5-5-5------------------------|
D|--------------0-0-0-----------------0-0-0-0-0-0-0-0------------------------|

************************************
Добавлено: 02.09.2015
Другие материалы по этой песне:
  • Аккорды и текст

Страница создана 02.09.2015
http://primanota.ru/misc-unsigned-bands/paceshifters-drone-chords.htm
Привет, Гость.
Предлагаем пройти революционный курс по гитаре.
Подарок от PrimaNota.Ru, забирай!