PrimaNota.ru - самый крупный в мире бесплатный архив песенных текстов, аккордов, табулатур и нот


Misc Unsigned Bands - Oh No Yoko - Hatshepsut - бас-таба

Регистрация Запомнить меня
Войти через:  Facebook Google Twitter Vk Yandex Mail.ru

Misc Unsigned Bands - Oh No Yoko - Hatshepsut - бас-таба

Печатать
Просмотров: 40
Oh No! Yoko - Hatshepsut (Bass)
Tabbed by Arman Dezfuli-Arjomandi
rawrmaan@gmail.com

Verse (come in at 0:21)

G|------------------------------|
D|---4---4-5-4-----4-5---5-4----| x4
A|-5---5-------5-4--------------|
E|---------------------5--------|

Break

G|------------|
D|---4--------| x4
A|-5---5-5----|
E|------------|

Verse x4
Break x4

G|------------------|
D|---4--------------| x4
A|-5---5-5-5-5-5----|
E|------------------|

Pause until 1:36, then

G|-----------|
D|-----------| x16
A|-5--7-7----|
E|-----------|


G|----------------------------|
D|----------------------------|
A|-5-5-5-7-7-7-7-7-7-7-7-7----|
E|----------------------------|

Next part is compressed to save space (play each note twice)

G|------------------------------------|
D|------------------------------------| x4
A|-5-5-5-5-5-5-5-5--------------------|
E|-----------------3-3-3-3-7-7-7-7----|

End

G|------|
D|------|
A|-5----|
E|------|
Добавлено: 08.12.2013
Другие материалы по этой песне:
  • Аккорды и текст

Страница создана 08.12.2013
http://primanota.ru/misc-unsigned-bands/oh-no-yoko-hatshepsut-chords.htm
Привет, Гость.
Предлагаем пройти революционный курс по гитаре.
Подарок от PrimaNota.Ru, забирай!