PrimaNota.ru - самый крупный в мире бесплатный архив песенных текстов, аккордов, табулатур и нот


Misc Unsigned Bands - Orgasm - Apex - бас-таба

Регистрация Запомнить меня
Войти через:  Facebook Google Twitter Vk Yandex Mail.ru

Misc Unsigned Bands - Orgasm - Apex - бас-таба

Печатать
Просмотров: 51
This song is a bit novelty, we decided to make it in our spare time. Using only a bass, 
keyboard and drums it sounds a bit crap but it's fun to try.

G|:-------------------2-3-4-------------234-4-5-4-5-4-5/11/10-10-10-11-11-12-12-|
D|:-------------2-3-4---------------234-----------------------------------------|
A|:-------2-3-4-----------------234---------------------------------------------|
E|:-2-3-4-------------------234-------------------------------------------------|

G|:-13-13-13/21b----21b----21b----21b----21b-----------------------------------|
D|:----------------------------------------------------------------------------|
A|:----------------------------------------------------------------------------|
E|:----------------------------------------------------------------------------|
Добавлено: 25.06.2013
Другие материалы по этой песне:
  • Аккорды и текст

Страница создана 25.06.2013
http://primanota.ru/misc-unsigned-bands/orgasm-apex-chords.htm
Привет, Гость.
Предлагаем пройти революционный курс по гитаре.
Подарок от PrimaNota.Ru, забирай!