PrimaNota.ru - самый крупный в мире бесплатный архив песенных текстов, аккордов, табулатур и нот


Misc Unsigned Bands - Octobre - Terre Souillée - таба

Регистрация Запомнить меня
Войти через:  Facebook Google Twitter Vk Yandex Mail.ru

Misc Unsigned Bands - Octobre - Terre Souillée - таба

Печатать
Просмотров: 84
-------------------------------------------------------------------------------
                        TERRE SOUILLÉE - Octobre
-------------------------------------------------------------------------------
Tabbed by: Vazelyne
E-mail: babaoroumqsd@gmail.com

Tuning: EADGBe

Riff A

e|-----9---10---9--------10----10---9---9-----9---10---9--------10----10---9-|
B|-7-7---7----7---7-7\10----10----9---9---7-7---7----7---7-7\10----10----9---|
G|---------------------------------------------------------------------------|
D|---------------------------------------------------------------------------|
A|---------------------------------------------------------------------------|
E|---------------------------------------------------------------------------|

e|-----|
B|---9-|
G|-9---|
D|-----|
A|-----|
E|-----|

Riff B

e|-------------------------------------------------------------------------|
B|-------------------------------------------------------------------------|
G|-------------------------------------------------------------------------|
D|-------------------------------------------------------------------------|
A|-9-9-9-9-9-9-9-9-12-12-12-12-7-7-7-7-9-9-9-9-9-9-9-9-12-12-12-12-7-7-5-5-|
E|-7-7-7-7-7-7-7-7-10-10-10-10-5-5-5-5-7-7-7-7-7-7-7-7-10-10-10-10-5-5-3-3-|
   x x x x x x x x x  x  x  x  x x x x x x x x x x x x x  x  x  x  x x x x

(Riff B)x1

Riff C

e|---------------------------------------------------------------------|
B|---------------------------------------------------------------------|
G|---------------------------------------------------------------------|
D|---------------------------------------------------------------------|
A|-9-9-9-9-9-9-9-9-5-5-5-5-7-7-7-7-9-9-9-9-9-9-9-9-12-12-12-12-5-5-7-7-|
E|-7-7-7-7-7-7-7-7-3-3-3-3-5-5-5-5-7-7-7-7-7-7-7-7-10-10-10-10-3-3-5-5-|

(Riff C palm muted)x1

(Riff A)x2

(Riff B)x2

(Riff A)x2

(Riff C)x1

(Riff C palm muted)x1

(Riff A)x2

Riff D 

e|-----9---------10---------9---10---9-|
B|-7-7---7-7-7-7----7-7-7-7---7----7---|
G|-------------------------------------|
D|-------------------------------------|
A|-------------------------------------|
E|-------------------------------------|

(Riff D)x3

(Riff C as it fade away)x2

************************************

| /   slide up
| \   slide down
| h   hammer-on
| p   pull-off
| ~   vibrato
| +   harmonic
| x   Mute note
| b   Bend
| pb  Pre-bend
| br  Bend release
| pbr Pre-bend release
| brb Bend release bend

************************************
Добавлено: 17.10.2015
Другие материалы по этой песне:
  • Аккорды и текст

Страница создана 17.10.2015
http://primanota.ru/misc-unsigned-bands/octobre-terre-souillee-chords.htm
Привет, Гость.
Предлагаем пройти революционный курс по гитаре.
Подарок от PrimaNota.Ru, забирай!