PrimaNota.ru - самый крупный в мире бесплатный архив песенных текстов, аккордов, табулатур и нот


Misc Unsigned Bands - Luke Burke - X - таба

Регистрация Запомнить меня
Войти через:  Facebook Google Twitter Vk Yandex Mail.ru

Misc Unsigned Bands - Luke Burke - X - таба

Печатать
Просмотров: 44
-------------------------------------------------------------------------------
                             X - Luke Burke
-------------------------------------------------------------------------------


Tuning: Standard
Time Signature: 4/4
BPM: 135
Amp: OVERDRIVEN (Except Intro)


INTRO (CLEAN)
e|---------------------------------------------------------------------------|
B|-------------------------------------------------10------------------------|
G|-------11----------------------11------------------------------------------|
D|----9------9--12--11--7-----9------9--12--11--9----------------------------|
A|---------------------------------------------------------------------------|
E|---------------------------------------------------------------------------|

e|---------------------------------------------------------------------------|
B|---------------------------------------------------------------------------|
G|-------11-----------------------7----------6-------------------------------|
D|----9------9--12--11--7------5-----5----7-----7----------------------------|
A|---------------------------------------------------------------------------|
E|---------------------------------------------------------------------------|

Intro is played quietly, crescendo in volume to build up to Verse.
 

VERSE (OVERDRIVEN)
e|---------------------------------------------------------------------------|
B|---------------------------------------------------------------------------|
G|----4----4--4--------------------------------------------------------------|
D|----4----4--4------4----4----4--4------5----5-------------4----------------|
A|----2----2--2------4----4----4--4------5----5------2------4----------------|
E|-------------------2----2----2--2------3----3------0------2----------------|

Verse is played with down-strokes, except for the pairs of chords, which
is played Down-Up.


CHORUS (OVERDRIVEN)
e|---------------------------------------------------------------------------|
B|---------------------------------------------------------------------------|
G|---4---4---4--4----7---7---7---------------------5---5---4-----------------|
D|---4---4---4--4----7---7---7----5---5---5---5----5---5---4---2-------------|
A|---2---2---2--2----5---5---5----5---5---5---5----3---3---2---0-------------|
E|--------------------------------3---3---3---3------------------------------|

Chorus is played similar to Verse, all down strokes except when two chords are
closely clustered, they are played Down-Up.


PRE-CHORUS 1 (OVERDRIVEN)
e|------------------------------|
B|------------------------------|
G|------------------------------|
D|------------------------------|
A|---------2------------2-------|
E|----0-------3----0-------3----|


PRE-CHORUS 2 (OVERDRIVEN)
e|--------------------------------------------------------|
B|--------------------------------------------------------|
G|--------------------------------------------------------|
D|--------------------------------------------------------|
A|---------2------------2------------2-------0----2-------|
E|----0-------3----0-------3----0-------3------------3----|

************************************

Song Progression:

Intro X 4
Verse X 10
Pre-Chorus 1 
Chorus X 4
Verse X 4
Pre-Chorus 2
Chorus X 8

Finished on E5 chord held

************************************

| /   slide up
| \   slide down
| h   hammer-on
| p   pull-off
| ~   vibrato
| +   harmonic
| x   Mute note
| b   Bend
| pb  Pre-bend
| br  Bend release
| pbr Pre-bend release
| brb Bend release bend

************************************
Добавлено: 23.04.2016
Другие материалы по этой песне:
  • Аккорды и текст

Страница создана 23.04.2016
http://primanota.ru/misc-unsigned-bands/luke-burke-x-chords.htm
Привет, Гость.
Предлагаем пройти революционный курс по гитаре.
Подарок от PrimaNota.Ru, забирай!