PrimaNota.ru - самый крупный в мире бесплатный архив песенных текстов, аккордов, табулатур и нот


Misc Unsigned Bands - Mykola Leontovy - Carol Of The Bells - таба

Регистрация Запомнить меня
Войти через:  Facebook Google Twitter Vk Yandex Mail.ru

Misc Unsigned Bands - Mykola Leontovy - Carol Of The Bells - таба

Печатать
Просмотров: 82
-------------------------------------------------------------------------------
                             Carol of The Bells
-------------------------------------------------------------------------------
Tabbed by:Jeremy
E-mail:jeenterprisesinc@bellsouth.net
strum pattern down up up down
Tuning:
     Am            Gm           F           E              Am            Gm
e|----5------------3------------1-----------0--------------5-------------3---|
B|---------------------------------------------------------------------------|
G|---------------------------------------------------------------------------|
D|---------------------------------------------------------------------------|
A|---------------------------------------------------------------------------|
E|---------------------------------------------------------------------------|
      Fm            E           Am            Gm            F
e|-----1------------0--------------------------------------------------------|
B|------------------------------1--0--1-------1--0--1-------1--0--1----------|
G|--------------------------------------2-------------2--------------2-------|
D|---------------------------------------------------------------------------|
A|---------------------------------------------------------------------------|
E|---------------------------------------------------------------------------|
      E              Am                Gm                 F
e|---------------------------------------------------------------------------|
B|--1--0--1----------1--0--1----------1--0--1-----------1--0--1--------------|
G|----------2----------------2----------------2-----------------2------------|
D|---------------------------------------------------------------------------|
A|---------------------------------------------------------------------------|
E|---------------------------------------------------------------------------|
         E                Am                Gm               F
e|----0-----0----------0-----0-----------0-----0----------0-----0------------|
B|-------3-----1----------3-----1-----------3-----1----------3-----1---------|
G|---------------------------------------------------------------------------|
D|---------------------------------------------------------------------------|
A|---------------------------------------------------------------------------|
E|---------------------------------------------------------------------------|
          Am              Gm                F                 Am
e|----0-----0----------0-----0-----------0-----0----------5--5--5--3--1------|
B|-------3-----1----------3-----1-----------3-----1--------------------------|
G|---------------------------------------------------------------------------|
D|---------------------------------------------------------------------------|
A|---------------------------------------------------------------------------|
E|---------------------------------------------------------------------------|
                            D                 Am               
e|----0--0--0-------------------0--------------------------------------------|
B|-------------3--1----3--3--3-----3---------------------------------0--1----|
G|---------------------------------------2--2--2--2------------1--2----------|
D|-------------------------------------------------------2--4----------------|
A|---------------------------------------------------------------------------|
E|---------------------------------------------------------------------------|
         Am                                                     Am
e|-------0----------------------------------0-------------------5------------|
B|----3-----3--1-----------------0--1----3-----3--1--------------------------|
G|-------------------------1--2----------------------------------------------|
D|-------------------2--4----------------------------------------------------|
A|---------------------------------------------------------------------------|
E|---------------------------------------------------------------------------|
         Gm                 F                  E                Am
e|-------3------------------1------------------0-----------------------------|
B|---------------------------------------------------------------------------| End on open chord Am
G|---------------------------------------------------------------------------| 
D|---------------------------------------------------------------------------|
A|---------------------------------------------------------------------------|
E|---------------------------------------------------------------------------|


************************************

| /   slide up
| \   slide down
| h   hammer-on
| p   pull-off
| ~   vibrato
| +   harmonic
| x   Mute note
| b   Bend
| pb  Pre-bend
| br  Bend release
| pbr Pre-bend release
| brb Bend release bend

************************************
Добавлено: 23.04.2016
Другие материалы по этой песне:
  • Аккорды и текст

Страница создана 23.04.2016
http://primanota.ru/misc-unsigned-bands/mykola-leontovy-carol-of-bells-chords.htm
Привет, Гость.
Предлагаем пройти революционный курс по гитаре.
Подарок от PrimaNota.Ru, забирай!