PrimaNota.ru - самый крупный в мире бесплатный архив песенных текстов, аккордов, табулатур и нот


Misc Unsigned Bands - Nathan Fowler - Listlessly He Wandered - таба

Регистрация Запомнить меня
Войти через:  Facebook Google Twitter Vk Yandex Mail.ru

Misc Unsigned Bands - Nathan Fowler - Listlessly He Wandered - таба

Печатать
Просмотров: 42
#-------------------Listlessly He Wandered - Nathan Fowler---------------------#

Artist: Nathan Fowler
Album: 5000 Li(v)es
Website: www.nathanfowlermusic.com
Style: Fingerstyle

Gtr I (E A D G B E) - 'Listlessly He Wandered'

 4/4
  Gtr I
|-3-----3-----------3-------3-----------0-0-----0-----------0-0-----0-|
|---0-----0-------0-------0---0-------0-----0-----0-------0-----0-----|
|-----2-----2---2-------0-------0---0---------0-----0---0---------0---|
|-------------0-------2-----------0-----------------------------------|
|-----------------------------------------------------2---------------|
|-3---------------------------------------0-------------------0-------|


|-----------0-3-----3-----------3-------3-----------0-0-----0-----------|
|-0-------0-----0-----0-------0-------0---0-------0-----0-----0-------0-|
|---0---0---------2-----2---2-------0-------0---0---------0-----0---0---|
|-------------------------0-------2-----------0-------------------------|
|-----2-----------------------------------------------------------2-----|
|-------------3---------------------------------------0-----------------|


|-0-0-----0-----------0-0-----0-----------0-3-----3---------3-----3-----|
|-----0-----0-------0-----2-----2-------2-----2-----2---------0-----0---|
|-------0-----0---0---------0-----0---0---------0-----0---------2-----2-|
|-----------------------------------2-----------------------------------|
|---------------2-------0-------------------0-----------0-2-3-----------|
|---0-------------------------------------------------------------------|


|-------3-------3-----------0-0-----0-----------0-3-----3---------3-----|
|-----0-------0---0-------0-----2-----2-------2-----2-----2---------0---|
|---2-------0-------0---0---------0-----0---0---------0-----0---------2-|
|-0-------2-------------------------------2-----------------------------|
|---------------------3-------0-------------------0-----------0-2-3-----|
|-----------------------------------------------------------------------|


|-3-----------3-------3-----------3--||-|-------7-----7-------------5-----5--|
|---0-------0-------0---0-------0---o||-|-----0---0-----0---0-----7---7------|
|-----2---2-------0-------0---0------||-|---9-------9-----9-----7-------7----|
|-------0-------2-----------0--------||-|------------------------------------|
|-----------------------------------o||-|------------------------------------|
|------------------------------------||-|-8-------------------7--------------|


|-------------3-----3---------------3-----3--------||-------2-----2-0-----|
|-7---7-----5---5-----5---5-------0---0-----0---0-o||-----0---0-----------|
|---7-----5-------5-----5-------2-------2-----2----||---2-------2-------2-|
|--------------------------------------------------||---------------------|
|-------------------------------------------------o||-2---------------3---|
|-------5-------------------5-3--------------------||---------------------|


|---3-----3-------------2-----2-0-------3-----3-|
|-0---0-----0---0-----0---0-----------0---0-----|
|-------2-----2-----2-------2-------2-------2---|
|-----------------------------------------------|
|-----------------2---------------3-------------|
|-----------------------------------------------|


Tablature Legend
----------------
 h   - hammer-on
 p   - pull-off
 b   - bend
 pb  - pre-bend
 r   - bend release (if no number after the r, then release immediately)
 /\  - slide into or out of (from/to "nowhere")
 s   - legato slide
 S   - shift slide
  - natural harmonic
[n]  - artificial harmonic
n(n) - tapped harmonic
 ~   - vibrato
 tr  - trill
 T   - tap
 TP  - trem. picking
 PM  - palm muting
\n/  - tremolo bar dip; n = amount to dip
 \n  - tremolo bar down
 n/  - tremolo bar up
/n\  - tremolo bar inverted dip
 =   - hold bend; also acts as connecting device for hammers/pulls
 <>  - volume swell (louder/softer)
 x   - on rhythm slash represents muted slash
 o   - on rhythm slash represents single note slash

Misc Legend
-----------
 |  - bar
||  - double bar
||o - repeat start
o|| - repeat end
*|  - double bar (ending)
 :  - bar (freetime)
 $  - Segno
 &  - Coda
Tempo markers -  = BPM(8/16=s8/s16), where s8 = swing 8ths, s16 = swing 16ths

Добавлено: 23.04.2016
Другие материалы по этой песне:
  • Аккорды и текст

Страница создана 23.04.2016
http://primanota.ru/misc-unsigned-bands/nathan-fowler-listlessly-he-wandered-chords.htm
Привет, Гость.
Предлагаем пройти революционный курс по гитаре.
Подарок от PrimaNota.Ru, забирай!