PrimaNota.ru - самый крупный в мире бесплатный архив песенных текстов, аккордов, табулатур и нот


Misc Unsigned Bands - Nymeria - Vampire Manifesto - таба

Регистрация Запомнить меня
Войти через:  Facebook Google Twitter Vk Yandex Mail.ru

Misc Unsigned Bands - Nymeria - Vampire Manifesto - таба

Печатать
Просмотров: 33
Track 1
     |---3---|  |---3---|   |---3---|  |---3--|                            
     E   E   E  E   E   E   E   E   E  E   E  E     Q.      E  Q.      E   
E||----------------------------------------------|------------------------|
B||-------------------------------------------9--|--8---------------------|
G||------------------------------------8--10-----|------------------------|
D||------------------------10------10------------|---------10--9------10--|
A||---------10---------10------10----------------|------------------------|
E||--8--11------8--11----------------------------|------------------------|


  S S  S S S S  S S  S S S  S S S  S S  
---------------------------------------|
--9-8----------------------------------|
------10-7-8-7----7-10-8-7-------------|
---------------10----------10-6-8-10-8-|
---------------------------------------|
---------------------------------------|


                                            |--3--|  |---3--|  |--3--|        
   S S S S S S  S S  S S  S S  S S S  S     E  E  E  E   E  E  E  E  E  Q     
----------------------------------------|------8-----8------8-----8----------|
-----------------------8----8-12-9-8----|---------8--------------------------|
-----7-8-7-6-8-10-8-10---10----------10-|---------------10-----8-----7--L----|
--10------------------------------------|--10--------------------------------|
----------------------------------------|------------------------------------|
----------------------------------------|------------------------------------|


  |---3--|   |---3--|  |---3--|                                
  E   E  E   E  E   E  E   E  E  Q       Q.     S S Q    Q     
-----10-----10-----10-----10----------|-----------------------|
---------9------8------6--------------|--9------8-6-8---------|
--7---------------------------8--L----|------------------5----|
--------------------------------------|-----------------------|
--------------------------------------|-----------------------|
--------------------------------------|-----------------------|


                                  W                                  
  Q.      S S Q     Q       E  E  H.              W                  
-------------------------|---------------------|-------------------||
-------------------------|---------------------|-------------------||
--7b------7-5-7b----7----|--7--5--5------------|--L----------------||
-------------------------|---------------------|-------------------||
-------------------------|---------------------|-------------------||
-------------------------|---------------------|-------------------||




Duration Legend
---------------
W - whole
H - half
Q - quarter
E - 8th
S - 16th
T - 32nd
X - 64th
. - note dotted
|-n-|  - n-tuplets


Tablature Legend
----------------
L - tied note
x - dead note
g - grace note
(n) - ghost note
> - accentuded note
NH - natural harmonic
AH - artificial harmonic
TH - tapped harmonic
SH - semi harmonic
PH - pitch harmonic
h - hammer on
p - pull off
b - bend
br - bendRelease
pb - preBend
pbr - preBendRelease
brb - bendReleaseBend
\n/ - tremolo bar dip
\n - tremolo bar dive
-/n - tremolo bar Release up
/n\ - tremolo bar inverted dip
/n - tremolo bar return
-\n - tremolo bar Release down
S - shift slide
s - legato slide
/ -  slide into from below or out of upwards
\ -  slide into from above or out of downwards
~ - vibrato
W - wide vibrato
tr - trill
TP - tremolo picking
T - tapping
S - slap
P - pop
< - fade in
^ - brush up
v - brush down
Добавлено: 23.04.2016
Другие материалы по этой песне:
  • Аккорды и текст

Страница создана 23.04.2016
http://primanota.ru/misc-unsigned-bands/nymeria-vampire-manifesto-chords.htm
Привет, Гость.
Предлагаем пройти революционный курс по гитаре.
Подарок от PrimaNota.Ru, забирай!