- самый крупный в мире бесплатный архив песенных текстов, аккордов, табулатур и нот

Misc Unsigned Bands - Neele Ternes - Dad - таба

Регистрация Запомнить меня
Войти через:  Facebook Google Twitter Vk Yandex

Misc Unsigned Bands - Neele Ternes - Dad - таба

Просмотров: 65
Beautiful song to illustrate a beautiful commercial.

Supreme Music feat. Neele Ternes - Dad

Bb 6-8-8-7-6-6--|
D/A 5-x-7-7-6-5-|
Gm 3-5-5-3-3-3--|
Eb x-6-8-8-8-6--|

D* x-5-5-7-x-x--|
C* x-3-3-5-x-x--|
Bb* x-1-1-3-x-x-|

It is the same riff for all the chords: Bb D/A Gm Eb
E ------------------------------------|
B -------6----------------------------|
G -----------7---7---7---7---7---7----|
D -----8---8---8---8---8---8---8---8--|
A ------------------------------------|
E ---6--------------------------------|
     P I A I M I M I M I M I M I M I

Then we have the part in between and that is basically: P I M I M I M I
The same for all the chords: D* C*  Bb* the last chords you can add a high F# on the E 
string at the end.
E ------------------------------------|
B ------------------------------------|
G --------7---7---7---7---7---7-------|
D ------5---5---5---5---5---5---------|
A ----5-------------------------------|
E ------------------------------------|

The scheme:
| Bb   D/A   Gm   E  |

after the couplet:
| D*  C*  Bb*        |

Bb                       D/A
   I never told you how
how much you mean to me
what in the world I would do
I just never made it through to you
  C*       Bb*  {high F#}
ohohoh to you

There goes a day
There goes a week
So many goals I had to reach
The more I did the less I cared
The more I missed the love you've shared

If life is a song somehow it's sad
I don't know the words without you dad
You've been on my mind all the time
And I'm missing you

             D*           C*           Bb
Home used to be just some walls that I know
                      D*           C*             Bb*
But the truth is that home means nothing without you

hit one time: Bb* Bb* C* Bb* Bb

Bb        D/A      Gm       E
Oohoo     oohohoo  oohooho
            Bb         D/A         E
Truth is my home means nothing without you
Добавлено: 23.04.2016
Другие материалы по этой песне:
  • Аккорды и текст

Страница создана 23.04.2016
Привет, Гость.
Предлагаем пройти революционный курс по гитаре.
Подарок от PrimaNota.Ru, забирай!