PrimaNota.ru - самый крупный в мире бесплатный архив песенных текстов, аккордов, табулатур и нот


Misc Unsigned Bands - Matthew Heiti - Hello - таба

Регистрация Запомнить меня
Войти через:  Facebook Google Twitter Vk Yandex Mail.ru

Misc Unsigned Bands - Matthew Heiti - Hello - таба

Печатать
Просмотров: 22
-------------------------------------------------------------------------------
            "Hello" - Matthew Heiti - Sudbury Theatre Centre (Black Dog)
-------------------------------------------------------------------------------
Tabbed by: Jordan, guitargod (youtube)
E-mail: jordanferguson29@hotmail.com

Tuning: Standard (EADGBe)

This song was written by Matthew Heiti for use in a play called "Black dog: 4 against the world", by the 
Sudbury Theatre Centre. You can find the video for it here: https://www.youtube.com/watch?v=HxB9lkx1agc
for the parts during the verses where you play a chord or part of a chord, you can mess around with how many 
strings you hit with the strum because it sounds fine normally if you play the full chord. but what is tabbed 
is what i usually play, and i don't worry about it if i hit an extra string or two on the strum. Enjoy! 

Intro/Verse

     Dm                      Am
e|----------1------1--------------0------------------------------------------|
B|---3--------3------3-------1-----------------------------------------------|
G|---2----------2------0-----2-----------------------------------------------|
D|---0-----------------------2-----------------------------------------------|   
A|---------------------------------------------------------------------------|
E|---------------------------------------------------------------------------|

     Dm                      Am
e|----------1------1--------------0------------------------------------------|
B|---3--------3------3-------1-----------------------------------------------|
G|---2----------2------0-----2-----------------------------------------------|
D|---0-----------------------2-----------------------------------------------|   
A|---------------------------------------------------------------------------|
E|---------------------------------------------------------------------------|

     Dm                      Am
e|----------1------1--------------0------------------------------------------|
B|---3--------3------3-------1-----------------------------------------------|
G|---2----------2------0-----2-----------------------------------------------|
D|---0-----------------------2-----------------------------------------------|   
A|---------------------------------------------------------------------------|
E|---------------------------------------------------------------------------|

     E
e|----------0------0---------0-----------------------------------------------|
B|---0--------0------0-------1-----------------------------------------------|
G|---1----------1------0-----2-----------------------------------------------|
D|---2-----------------------2-----------------------------------------------|
A|---2----------------------------0------------------------------------------|
E|---------------------------------------------------------------------------|


Pattern for strummed verses:

 
  Dm        Am  Dm            Am  Dm           Am                E     Am       
  Hello, hello. come and join me. here in this waste-land, we're all alone.
Добавлено: 17.03.2016
Другие материалы по этой песне:
  • Аккорды и текст

Страница создана 17.03.2016
http://primanota.ru/misc-unsigned-bands/matthew-heiti-hello-chords.htm
Привет, Гость.
Предлагаем пройти революционный курс по гитаре.
Подарок от PrimaNota.Ru, забирай!