PrimaNota.ru - самый крупный в мире бесплатный архив песенных текстов, аккордов, табулатур и нот


Misc Unsigned Bands - Luke Burke - Why - таба

Регистрация Запомнить меня
Войти через:  Facebook Google Twitter Vk Yandex Mail.ru

Misc Unsigned Bands - Luke Burke - Why - таба

Печатать
Просмотров: 58
-------------------------------------------------------------------------------
                             Why? - Luke Burke
-------------------------------------------------------------------------------


Tuning: Standard
Time Signature: 12/8
BPM: 140
Amp: Clean (except for last chorus)


VERSE
e|---------------------------------------------------------------------------|
B|---------------------------------------------------------------------------|
G|---------t12---------t11--------------------t11/12-------------------------|
D|------t9----------t9----------t9--t12------t9------------------------------|
A|---t7----------t7----------t7----------t7----------------------------------|
E|---------------------------------------------------------------------------|

e|---------------------------------------------------------------------------|
B|---------------------------------------------------------------------------|
G|---------t12---------t11--------------------t11/12-------------------------|
D|------t9----------t9----------t9--t12------t9------------------------------|
A|---t7----------t7----------t7----------t7----------------------------------|
E|---------------------------------------------------------------------------|

e|---------------------------------------------------------------------------|
B|---------------------------------------------------------------------------|
G|---------t12---------t11--------------------t11/12-------------------------|
D|------t7----------t7----------t7--t12------t7------------------------------|
A|---t5----------t5----------t5----------t5----------------------------------|
E|---------------------------------------------------------------------------|

e|------------------------------------------------------------------------------|
B|------------------------------------------------------------------------------|
G|---------t12---------t11---------------------t11/12---------------------------|
D|------t5----------t5----------t5-t12------t5----------------------------------|
A|---t3----------t3----------t3----------t3-------------------------------------|
E|------------------------------------------------------------------------------|

Verse is played with left hand forefinger and ringfinger tapping the first two notes on the A and D
strings respectively, with right hand tapping third, higher note.
All notes are played in sets of three.


CHORUS
e|---------------------------------------------------------------------------|
B|---------------------------------------------------------------------------|
G|----9---9---9-----5---5---5---5---5-------------------7---7---7---7--------|
D|----9---9---9-----5---5---5---5---5-----7---7---7-----7---7---7---7--------|
A|----7---7---7-----3---3---3---3---3-----7---7---7-----5---5---5---5--------|
E|----7---7---7-----3---3---3---3---3-----5---5---5-----5---5---5---5--------|

Chorus is played in time to kick of drum, alternating between 3 and 5 strokes.
First, second and fourth chords are played with forefinger barring E and A strings,
as third and fourth finger play D and G strings, respectively. Chord three is
played like any other power chord, with forefinger, ringfinger and pinkie.


SOLO (IMPROV)
e|----------------------------|----------------------------------------------|
B|----------------------12\---|--------------------------12\-----------------|
G|----12\---11\---------------|---12\---11h12p11-----------------------------|
D|----------------12\---------|--------------------12\-----------------------|
A|----------------------------|----------------------------------------------|
E|----------------------------|----------------------------------------------|

e|----------------------------------------------|----------------------------------|
B|------------------------17-----17-----17------|----------------------------------|
G|---12---12/14---14/16---16b18--16b18--16b18---|---12---12\14---14\16---12\-------|
D|----------------------------------------------|----------------------------------|
A|----------------------------------------------|----------------------------------|
E|----------------------------------------------|----------------------------------|

This is a sixteen bar solo. It is intended to be improvised, but above is a basic example.
Each note is played on the last beat of the bar.


VERSE (LITE)
e|---------------------------------------------------------------------------|
B|---------------------------------------------------------------------------|
G|---------------------------------------------------------------------------|
D|-------x9---x9---------x9---x9----------x7---x7-----------x5---x5----------|
A|---x7--------------x7--------------x5----------------x3--------------------|
E|---------------------------------------------------------------------------|

e|---------------------------------------------------------------------------|
B|---------------------------------------------------------------------------|
G|---------------------------------------------------------------------------|
D|-------x9---x9---------x9---x9----------x7---x7-----------x5---x5----------|
A|---x7--------------x7--------------x5----------------x3--------------------|
E|---------------------------------------------------------------------------|

e|---------------------------------------------------------------------------|
B|---------------------------------------------------------------------------|
G|----------------------------9\---------------------------------------------|
D|-------x9---x9\---------x9------------x7---x7\---------x5\---x5\-----------|
A|---x7-------------x7-------------x5-------------x3-------------------------|
E|---------------------------------------------------------------------------|

e|---------------------------------------------------------------------------|
B|---------------------------------------------------------------------------|
G|----------------------------9\---------------------------------------------|
D|-------x9---x9\---------x9------------x7---x7\---------x5\---x5\-----------|
A|---x7-------------x7-------------x5-------------x3-------------------------|
E|---------------------------------------------------------------------------|

This verse is played with the same notes on the A and D as the normal one,
but instead of being tapped they are muted, and the last note is slid down.


Bridge
e|---------------------------------------------------------------------------|
B|---------------------------------------------------------------------------|
G|---------------------------------------------------------------------------|
D|---------------------------------------------------------------------------|
A|---------------------------------------------------------------------------|
E|-----0-----2-----3-----5-----7-----8-----10-----12--12--12--12-------------|

e|---------------------------------------------------------------------------|
B|---------------------------------------------------------------------------|
G|---------------------------------------------------------------------------|
D|---------------------------------------------------------------------------|
A|---------------------------------------------------------------------------|
E|-----0-----2-----3-----5-----7-----8-----10-----12--12--12--12-------------|

e|---------------------------------------------------------------------------|
B|---------------------------------------------------------------------------|
G|---------------------------------------------------------------------------|
D|---------------------------------------------------------------------------|
A|-----2-----4-----5-----7-----9-----10----12-----14--14--14--14-------------|
E|-----0-----2-----3-----5-----7-----8-----10-----12--12--12--12-------------|

e|---------------------------------------------------------------------------|
B|---------------------------------------------------------------------------|
G|---------------------------------------------------------------------------|
D|-----2-----4-----5-----7-----9-----10----12-----14br--14br--14br--14br-----|
A|---------------------------------------------------------------------------|
E|-----0-----2-----3-----5-----7-----8-----10--------------------------------|

Bridge notes are played at the first beat of each bar, except for the final note,
which is repeated four times. Each note is to be played with vibrato and sustain.

************************************

Song Progression:

(Clean)
Verse x 4
Chorus X 4
Verse X 4
Solo
Chorus X 4
Verse (LITE)
Bridge
Chorus X 6 (OverDriven)

************************************

| /   slide up
| \   slide down
| t    tap
| h   hammer-on
| p   pull-off
| ~   vibrato
| +   harmonic
| x   Mute note
| b   Bend
| pb  Pre-bend
| br  Bend release
| pbr Pre-bend release
| brb Bend release bend

************************************
Добавлено: 22.04.2016
Другие материалы по этой песне:
  • Аккорды и текст

Страница создана 22.04.2016
http://primanota.ru/misc-unsigned-bands/luke-burke-why-chords.htm
Привет, Гость.
Предлагаем пройти революционный курс по гитаре.
Подарок от PrimaNota.Ru, забирай!