PrimaNota.ru - самый крупный в мире бесплатный архив песенных текстов, аккордов, табулатур и нот


Misc Unsigned Bands - Love Robot - Theres So Much Beauty In A Storm - таба, видео

Регистрация Запомнить меня
Войти через:  Facebook Google Twitter Vk Yandex Mail.ru

Misc Unsigned Bands - Love Robot - Theres So Much Beauty In A Storm - таба, видео

Печатать
Просмотров: 94
Уроки эстрадного вокала в Санкт-Петербурге
------------------------------------------------------------------------------
        There's So Much Beauty In A Storm - Love, Robot feat. Ray Hodge
-------------------------------------------------------------------------------
Another song by the amazing band Love, Robot. Enjoy!
Tabbed by: Nadessalive
Tuning: Standard
Capo: 2nd Fret

Intro: 2x
e|----------------|-----------------------------------------------------------|
B|---------------7|-----------------------------------10------10--------------|
G|-------0--------|-----------0------0--------0-------------------------------|
D|---0--------0---|2x-----0---------0---------------0-------------------------|
A|-7---7----7-----|-----9---9-----9-----9-------10--------10------------------|
E|----------------|-----------------------------------------------------------|

Verse: 3x last time strumming
e|--0----(3)----0----(3)----|
B|--9-----3-----5-----3-----|
G|--0-----0-----0-----0-----|
D|--0-----0-----0-----0-----|
A|--9-----3-----5-----3-----|
E|--x-----x-----x-----x-----|

Chorus: 2x
e|-0-----------0------0-------|
B|-3-----------5------7-------|
G|-0-----------0------0-------|
D|-0-----------0------0-------|
A|-3-----------5------7-------|
E|-x-----------x------x-------|
  DUD.UUDUUDUD-DUD.UU-D.UUDU

Intro: 2x
e|----------------|-----------------------------------------------------------|
B|---------------7|----------------------------------10------10---------------|
G|-------0--------|-----------0------0-------0--------------------------------|
D|---0--------0---|2x----0---------0--------------0---------------------------|
A|-7---7----7-----|----9---9-----9-----9-------10--------10-------------------|
E|----------------|-----------------------------------------------------------|

Verse: 4x constant DUDU strumming ending with a single strum on the last chord
e|--0----(3)----0----(3)----|
B|--9-----3-----5-----3-----|
G|--0-----0-----0-----0-----|
D|--0-----0-----0-----0-----|
A|--9-----3-----5-----3-----|
E|--x-----x-----x-----x-----|

Pre-Chorus: 
e|-0-0-0---|
B|-3-3-3---|
G|-0-0-0---|
D|-0-0-0---|
A|-3-3-3---|
E|---------|
   D U D

Chorus: 4x
e|-0-----------0------0-------|
B|-3-----------5------7-------|
G|-0-----------0------0-------|
D|-0-----------0------0-------|
A|-3-----------5------7-------|
E|-x-----------x------x-------|
  DUD.UUDUUDUD-DUD.UU-D.UUDU

I'm not 100% sure about this following part, 
so if anybody has any suggestions, I'd appreciate that.
Bridge:     6x           there could also be this chord in there:
e|--3---0--0-0-0-0-0-----------------0---------------------------------|
B|--3---7--8-8-0-8-7-7-7b-----------10---------------------------------|
G|--0---0--0-0-7-0-0-----------------0---------------------------------|
D|--0---0--0-0-0-0-0-----------------0---------------------------------|
A|--3---7--8-7-7-7-7----------------10---------------------------------|
E|---------------------------------------------------------------------|

Bridge Part 2: 4x
This is played in a certain strumming pattern which is difficult to tab out,
but if you listen to 3:26-3:32 you can hear it and there's also an instrumental 
version where you can see this : https://www.youtube.com/watch?v=UepYaa5O8b8
e|-0--0--0-0--0-0---0-0-0-0-0-0-0-0--------------|
B|-1-(1)-1-1--1-0---0-0-0-0-0-0-0-0--------------|
G|-2--0--2-0--2-0---0-0-0-0-0-0-0-0--------------|
D|-2--0--2-0--2-0---2-2-2-2-5-5-5-5--------------|
A|-0--0--0-0--0-0---2-2-2-2-5-5-5-5--------------|
E|------------------0-0-0-0-0-0-0-0--------------|
                    
Chorus: 2x or two more times the 2nd Part of the Bridge
e|-0-----------0------0-------|
B|-3-----------5------7-------|
G|-0-----------0------0-------|
D|-0-----------0------0-------|
A|-3-----------5------7-------|
E|-x-----------x------x-------|
  DUD.UUDUUDUD-DUD.UU-D.UUDU


Outro: 2x this is just a little variation of the intro.
e|-----------------|----------------------------------------------------------|
B|---------------7-|----------------------------10-------10------10-----------|
G|-------0---------|----------0------0------0---------------------------------|
D|---0--------0----|2x----0---------0-----------------------------------------|
A|-7---7----7------|----9---9-----9-----9-----------10-------10---------------|
E|-----------------|----------------------------------------------------------|

Добавлено: 17.10.2015
Другие материалы по этой песне:
  • Аккорды и текст

Страница создана 17.10.2015
http://primanota.ru/misc-unsigned-bands/love-robot-theres-so-much-beauty-in-a-storm-chords.htm
Привет, Гость.
Предлагаем пройти революционный курс по гитаре.
Подарок от PrimaNota.Ru, забирай!