PrimaNota.ru - самый крупный в мире бесплатный архив песенных текстов, аккордов, табулатур и нот


Misc Unsigned Bands - Mr Greenfingers - Sucker For Ass - таба

Регистрация Запомнить меня
Войти через:  Facebook Google Twitter Vk Yandex Mail.ru

Misc Unsigned Bands - Mr Greenfingers - Sucker For Ass - таба

Печатать
Просмотров: 91
-------------------------------------------------------------------------------
                             Sucker For Ass - Mr Greenfingers
-------------------------------------------------------------------------------
Tabbed by:JrOnGuitar
E-mail:JrOnGuitar@icloud.com

Tuning: EADGBe

e|----------------------|
B|----------------------|
G|--5--2-----2-------2--|  Intro and 1st half of verse
D|--2-----5----------2--|       Overall X 12
A|--0-----------3b4--0--|
E|----------------------|

e|----------------------|       |------------------|
B|----------------------|       |------------------|
G|--5--2-----2-------2--|   X 3 |--5--5-5--7--7-7--|   2nd Half of Verse 1
D|--2-(2)-5-(2)------2--|       |--5--5-5--7--7-7--|   This is also all other verses
A|--0-(0)(0)(0)-3b4--0--|       |--3--3-3--5--5-5--|
E|----------------------|       |------------------|

e|---------------------------5--5--X--5--5-5-------|
B|---------------------------5--5--X--5--5-5-------|
G|--2--2---------------------5--5--X--5--5-5-------|   Chorus
D|--2--2----------2--2-------4--4--X--4--4-4-------|
A|--0--0----------2--2-------5--5--X--5--5-5-------|
E|--------3b4--0--0--0----0------------------------|

e|---------------------------0--0--X--0--0-0-------|
B|---------------------------3--3--X--3--3-3-------|
G|--2--2---------------------5--5--X--5--5-5-------| 
D|--2--2----------2--2-------4--4--X--4--4-4-------|
A|--0--0----------2--2-------5--5--X--5--5-5-------|
E|--------3b4--0--0--0----0------------------------|

e|---------------------------7--7--X--7--7-6-5--5-X--5--5-X--5--5-X--5--5-X--|
B|---------------------------7--7--X--7--7-6-5--5-X--5--5-X--5--5-X--5--5-X--|
G|--2--2---------------------7--7--X--7--7-6-5--5-X--5--5-X--5--5-X--5--5-X--|
D|--2--2----------2--2-------6--6--X--6--6-5-4--4-X--4--4-X--4--4-X--4--4-X--|
A|--0--0----------2--2-------7--7--X--7--7-6-5--5-X--5--5-X--5--5-X--5--5-X--|
E|--------3b4--0--0--0----0--------------------------------------------------|

e|-------5-------------------------------|
B|--8b10---8p5---5-----------------------|
G|-------------7---7-5-5h7p5---5---------|    Lead lick after Chorus 1
D|---------------------------7---7-5--7--|    
A|---------------------------------------|
E|---------------------------------------|
     
e|--------------------------------------------|
B|--------------------------------------------|
G|--------------------------------------------|    Outro
D|-----------------------------------7--9--7--|
A|--7--7-7(7)7-7--7-7(7)7-7--7-7(7)7-5--7--5--|
E|--5--5-8p5-5-5--5-8p5-5-5--5-8p5-5----------|
     pm-        pm-        pm-     -
e|---------------------------------------------|
B|---------------------------------------------|
G|---------------------------------------------|    
D|---------------------------------------------|
A|--7--7-7(7)7-7--7-7(7)7-7--7-7(7)--5--5--5/--|
E|--5--5-8p5-5-5--5-8p5-5-5--5-8p5-0-3--0--3/--|
     pm-        pm-        pm-     -    -
e|--------------------------------------------|
B|--------------------------------------------|
G|--------------------------------------------|    
D|-----------------------------------7--9--7--|
A|--7--7-7(7)7-7--7-7(7)7-7--7-7(7)7-5--7--5--|
E|--5--5-8p5-5-5--5-8p5-5-5--5-8p5-5----------|
     pm-        pm-        pm-     -
e|---------------------------------------------|
B|---------------------------------------------|
G|---------------------------------------------|    
D|---------------------------------------------|
A|--7--7-7(7)7-7--7-7(7)7-7--7-7(7)--5--5--5/--|
E|--5--5-8p5-5-5--5-8p5-5-5--5-8p5-0-3--0--3/--|
     pm-        pm-        pm-     -    -
e|--------------------------------------------|
B|--------------------------------------------|
G|--------------------------------------------|    
D|-----------------------------------7--9--7--|
A|--7--7-7(7)7-7--7-7(7)7-7--7-7(7)7-5--7--5--|
E|--5--5-8p5-5-5--5-8p5-5-5--5-8p5-5----------|
     
e|---------------------------------------------|
B|---------------------------------------------|
G|---------------------------------------------|    
D|---------------------------------------------|
A|--7--7-7(7)7-7--7-7(7)7-7--7-7(7)--5--5--5/--|
E|--5--5-8p5-5-5--5-8p5-5-5--5-8p5-0-3--0--3/--|
     
e|--------------------------------------------|
B|--------------------------------------------|
G|--------------------------------------------|    
D|-----------------------------------7--9--7--|
A|--7--7-7(7)7-7--7-7(7)7-7--7-7(7)7-5--7--5--|
E|--5--5-8p5-5-5--5-8p5-5-5--5-8p5-5----------|
     
e|--------------------------------------0--|
B|--------------------------------------1--|
G|--------------------------------------0--|    
D|--------------------------------7-7-7-2--|
A|--7--7-7(7)7-7-7-7-7(7)7--5-5-5-5-5-5-0--|
E|--5--5-8p5-5-5-5-5-8p5-5--3-3-3----------|
     








************************************

| /   slide up
| \   slide down
| h   hammer-on
| p   pull-off
| ~   vibrato
| +   harmonic
| x   Mute note
| b   Bend
| pb  Pre-bend
| br  Bend release
| pbr Pre-bend release
| brb Bend release bend

************************************
Добавлено: 17.10.2015
Другие материалы по этой песне:
  • Аккорды и текст

Страница создана 17.10.2015
http://primanota.ru/misc-unsigned-bands/mr-greenfingers-sucker-for-ass-chords.htm
Привет, Гость.
Предлагаем пройти революционный курс по гитаре.
Подарок от PrimaNota.Ru, забирай!