PrimaNota.ru - самый крупный в мире бесплатный архив песенных текстов, аккордов, табулатур и нот


Misc Unsigned Bands - Mary Lee Bates - Be Thou My Vision - таба

Регистрация Запомнить меня
Войти через:  Facebook Google Twitter Vk Yandex Mail.ru

Misc Unsigned Bands - Mary Lee Bates - Be Thou My Vision - таба

Печатать
Просмотров: 76
-------------------------------------------------------------------------------
                             SONG NAME - Band Name
-------------------------------------------------------------------------------
Tabbed by:
E-mail:
key of:D
Tuning:E-A-D-G-B-e

e|--------------------------------------------------------------------------------------|
B|------------------------------------------------------------------0-------------------|
G|-------------------------------------------------------------2---------2---------2----|
D|0---0---2-0-----------0---0--2---4------2-----2---2---2---4--0----0----0-----4-----0-2|
A|0---0---0---2--0--2---2---2--2-0-0------4-----4-----------5------------------5---4----|
E|------------3-----2-------------------------------------------------------------------|
  Be thou my vision oh Lord of my heart; naught be all else to me, save that thou art;
e|--------------------------------------------------------------------------------------|
B|-0---0-2-3-2--0-------------------------------------0---------------------------------|
G|---------0---------2------2----------------------2----2-------------------------------|
D|-0---0--------0----0--4------0-------------0--4--0--0-0--4----0-4-2--0-----0----0-----|
A|----------------------5-4-2--0--4--2-0---0-0--5----------2------4-2--2-----2----0-----|
E|--------------------------------5------3----------------------------------------------|
  Thou my best thought, by day or by night, waking or sleeping, thy presence my light.





************************************

| /   slide up
| \   slide down
| h   hammer-on
| p   pull-off
| ~   vibrato
| +   harmonic
| x   Mute note
| b   Bend
| pb  Pre-bend
| br  Bend release
| pbr Pre-bend release
| brb Bend release bend

************************************
Добавлено: 17.10.2015
Другие материалы по этой песне:
  • Аккорды и текст

Страница создана 17.10.2015
http://primanota.ru/misc-unsigned-bands/mary-lee-bates-be-thou-my-vision-chords.htm
Привет, Гость.
Предлагаем пройти революционный курс по гитаре.
Подарок от PrimaNota.Ru, забирай!