PrimaNota.ru - самый крупный в мире бесплатный архив песенных текстов, аккордов, табулатур и нот


Misc Unsigned Bands - Monocure - In Love With Myself - таба, видео

Регистрация Запомнить меня
Войти через:  Facebook Google Twitter Vk Yandex Mail.ru

Misc Unsigned Bands - Monocure - In Love With Myself - таба, видео

Печатать
Просмотров: 98
E Standard tuning (EADGBE)

Intro
e----------------------------------------------------------------------|
B----------------------------------------------------------------------|
G----10-9-7-------10-9-7-------10-9-7------9h10h9-9h10h9-9h10h9-9h10h9-|
D-9-9------9-7-9-9------9-7-9-9------9-7-9-----------------------------|  X4
A----------------------------------------------------------------------|
E----------------------------------------------------------------------|

h= hammer on

e-----------------|      e-----------------------|       
B-----------------|      B-----------------------|
G---7-7-7-7-------|      G---7-7-7-7-------------|
D-9-7-7-7-7-7-5-7-|  X3  D-9-5-5-5-5-------------|
A-9-5-5-5-5-7-5-7-|      A-9-5-5-5-5-----5-------|
E-7---------5-3-5-|      E-7---------3-5---5-3-5-|


Verse
e------|        
B------|
G-9h10-|    
D------|  X3  
A------|    
E------|


Chorus
e-----------------|     
B-----------------|
G---7-7-7-7-------|
D-9-7-7-7-7-7-5-7-|  X4
A-9-5-5-5-5-7-5-7-|
E-7---------5-3-5-|

e----------------------------------------------------------------------|
B----------------------------------------------------------------------|
G----10-9-7-------10-9-7-------10-9-7------9h10h9-9h10h9-9h10h9-9h10h9-|
D-9-9------9-7-9-9------9-7-9-9------9-7-9-----------------------------|  X2
A----------------------------------------------------------------------|
E----------------------------------------------------------------------|


Verse
e------|        
B------|
G-9h10-|    
D------|  X3  
A------|    
E------|


Chorus
e-----------------|     
B-----------------|
G---7-7-7-7-------|
D-9-7-7-7-7-7-5-7-|  X4
A-9-5-5-5-5-7-5-7-|
E-7---------5-3-5-|


Solo
e---------------------------------------------------------------------------------------------------|
B-15-12---12----------15-12----12-----------------------------------15-12-9-15-12-9-15-12-9-15-9-12-|
G------14----14-11-11-------14----14-11-11--11-11-11-14-11------------------------------------------|
D----------------------------------------------------------14-12-9----------------------------------| 
A---------------------------------------------------------------------------------------------------|
E---------------------------------------------------------------------------------------------------|

e-----------------------------------------------------------------------------|
B-18-15-12-18-15-12-18-15-12-18-15-12-15-12-9-15-12-9-15-12-9-15-12-9-15------|
G-----------------------------------------------------------------------------|
D-----------------------------------------------------------------------------| 
A-----------------------------------------------------------------------------|
E-----------------------------------------------------------------------------|


Verse
e----------------------|        
B-12-12-12-12-12-12-12-|
G----------------------|    
D----------------------|  
A----------------------|    
E----------------------|


Chorus
e-----------------|     
B-----------------|
G---7-7-7-7-------|
D-9-7-7-7-7-7-5-7-|  X4
A-9-5-5-5-5-7-5-7-|
E-7---------5-3-5-|

e----------------------------------------------------------------------|
B----------------------------------------------------------------------|
G----10-9-7-------10-9-7-------10-9-7------9h10h9-9h10h9-9h10h9-9h10h9-|
D-9-9------9-7-9-9------9-7-9-9------9-7-9-----------------------------|  X2
A----------------------------------------------------------------------|
E----------------------------------------------------------------------|

e---|     
B---|
G---|
D-9-|
A-9-|
E-7-|
Добавлено: 17.10.2015
Другие материалы по этой песне:
  • Аккорды и текст

Страница создана 17.10.2015
http://primanota.ru/misc-unsigned-bands/monocure-in-love-with-myself-chords.htm
Привет, Гость.
Предлагаем пройти революционный курс по гитаре.
Подарок от PrimaNota.Ru, забирай!