PrimaNota.ru - самый крупный в мире бесплатный архив песенных текстов, аккордов, табулатур и нот


Misc Unsigned Bands - Miracles - Energy Infinite - таба, видео

Регистрация Запомнить меня
Войти через:  Facebook Google Twitter Vk Yandex Mail.ru

Misc Unsigned Bands - Miracles - Energy Infinite - таба, видео

Печатать
Просмотров: 119
Уроки эстрадного вокала в Санкт-Петербурге
-------------------------------------------------------------------------------
                             Miracles - Energy Infinite
-------------------------------------------------------------------------------
Tabbed by: TheDankTank
E-mail: jonanderson1996@gmail.com

Tuning: Standard(EADGBe)

Verse
e|---------------------------------------------------------------------------|
B|---------------------------------------------------------------------------|
G|---11-11-1111-11-11-11-9-9/11-11-11-111111------11---9h11------------------|
D|---11-11-1111-11-11-11-9-9/11-11-11-111111---11----------------------------|
A|---9--9--9-9--9--9--9--7-7/9--9--9--9-9-9--9-------9-----------------------|
E|---------------------------------------------------------------------------|

e|---------------------------------------------------------------------------|
B|---------------------------------------------------------------------------|
G|---11-11-1111-11-11-11-9-9/11-11-11-111111-6-6-6/9-9/11--------------------|
D|---11-11-1111-11-11-11-9-9/11-11-11-111111-6-6-6/9-9/11--------------------|
A|---9--9--9-9--9--9--9--7-7/9--9--9--9-9-9--4-4-4/7-7/9---------------------|
E|---------------------------------------------------------------------------|

Chorus
e|---2--2-2-2-2-2------------------------------------------------------------|
B|---2--2-2-2-2-2--3--3-3-3-3-3----------------------------------------------|
G|---2--2-2-2-2-2--2--2-2-2-2-2--2--2-2-2-2-2--9--9-9-9-9-9------------------|
D|---4--4-4-4-4-4--0--0-0-0-0-0--2--2-2-2-2-2--9--9-9-9-9-9------------------|
A|---x--x-x-x-x-x----------------0--0-0-0-0-0--7--7-7-7-7-7------------------|
E|---2--2-2-2-2-2------------------------------------------------------------|

e|---2--2-2-2-2-2------------------------------------------------------------|
B|---2--2-2-2-2-2--3--3-3-3-3-3----------------------------------------------|
G|---2--2-2-2-2-2--2--2-2-2-2-2--2--2-2-2-2-2--------------------------------|
D|---4--4-4-4-4-4--0--0-0-0-0-0--2--2-2-2-2-2--2--2-2-2-2-2------------------|
A|---x--x-x-x-x-x----------------0--0-0-0-0-0--2--2-2-2-2-2------------------|
E|---2--2-2-2-2-2------------------------------0--0-0-0-0-0------------------|

Verse 2
e|---------------------------------------------------------------------------|
B|---------------------------------------------------------------------------|
G|---11-11-1111-11-11-11-9-9/11-11-11-111111------11---9h11------------------|
D|---11-11-1111-11-11-11-9-9/11-11-11-111111---11----------------------------|
A|---9--9--9-9--9--9--9--7-7/9--9--9--9-9-9--9-------9-----------------------|
E|---------------------------------------------------------------------------|

e|---------------------------------------------------------------------------|
B|---------------------------------------------------------------------------|
G|---11-11-1111-11-11-11-9-9/11-11-11-111111-6-6-6/9-9/11--------------------|
D|---11-11-1111-11-11-11-9-9/11-11-11-111111-6-6-6/9-9/11--------------------|
A|---9--9--9-9--9--9--9--7-7/9--9--9--9-9-9--4-4-4/7-7/9---------------------|
E|---------------------------------------------------------------------------|

Chorus 2
e|---2--2-2-2-2-2------------------------------------------------------------|
B|---2--2-2-2-2-2--3--3-3-3-3-3----------------------------------------------|
G|---2--2-2-2-2-2--2--2-2-2-2-2--2--2-2-2-2-2--9--9-9-9-9-9------------------|
D|---4--4-4-4-4-4--0--0-0-0-0-0--2--2-2-2-2-2--9--9-9-9-9-9------------------|
A|---x--x-x-x-x-x----------------0--0-0-0-0-0--7--7-7-7-7-7------------------|
E|---2--2-2-2-2-2------------------------------------------------------------|

e|---2--2-2-2-2-2------------------------------------------------------------|
B|---2--2-2-2-2-2--3--3-3-3-3-3----------------------------------------------|
G|---2--2-2-2-2-2--2--2-2-2-2-2--2--2-2-2-2-2--------------------------------|
D|---4--4-4-4-4-4--0--0-0-0-0-0--2--2-2-2-2-2--2--2-2-2-2-2------------------|
A|---x--x-x-x-x-x----------------0--0-0-0-0-0--2--2-2-2-2-2------------------|
E|---2--2-2-2-2-2------------------------------0--0-0-0-0-0------------------|


Bridge A
e|---------------------------------------------------------------------------|
B|---------------------------------------------------------------------------|
G|---11-111111\9\7--7-7-7-7--6--6-6-6-6--7/9--9-9-9-9-9h10-------------------|
D|---11-111111\9\7--7-7-7-7--7--7-7-7-7--7/9--9-9-9-9-9h10-------------------|
A|---9--9-9-9-\7\5--5-5-5-5--7--7-7-7-7--5/7--7-7-7-7-7h8--------------------|
E|---------------------------5--5-5-5-5--------------------------------------|

Bridge B (Guitar 1)
e|-----------------------------9--9-9-9-9-9----------------------------------|
B|---7--7-7-7-7---9--9-9-9-9---10-1010101010---12-9-9h10p9-------------------|
G|---7--7-7-7-7---9--9-9-9-9---9--9-9-9-9-9----------------11----------------|
D|---7--7-7-7-7---9--9-9-9-9---11-1111111111---------------------------------|
A|---5--5-5-5-5---7--7-7-7-7---9--9-9-9-9-9----------------------------------|
E|---------------------------------------------------------------------------|

Bridge B (Guitar 2)
e|-----------------------------------------------------------------------------------------------------|
B|-----------------------------------------------------------------------------------------------------|
G|---11-11111114\13--13-13-13-13-9-9-9\6/9/11-1111---11-111111/14/16--16-16-16-16-/9-9-9-6/9/11-1111---|
D|-----------------------------------------------------------------------------------------------------|
A|---9--9-9-9-12\11--11-11-11-11-7-7-7\4/7/9--9-9----9--9-9-9-/12/14--14-14-14-14-/7-7-7-4/7/9--9-9----|
E|-----------------------------------------------------------------------------------------------------|

e|-----------------------------------------------------------------------------------------------------|
B|-----------------------------------------------------------------------------------------------------|
G|---11-11111114\13--13-13-13-13-13/14--14-14-14-14-14/16-13-13/14\13-11-9-9-9/111111\6-6-6/9-9/11-----|
D|-----------------------------------------------------------------------------------------------------|
A|---9--9-9-9-12\11--11-11-11-11-11/12--12-12-12-12-12/14-11-11/12\11-9--7-7-7/9-9-9-\4-4-4/7-7/9------|
E|-----------------------------------------------------------------------------------------------------|

Solo (Guitar 1)
e|---------------------------------------------------------------------------|
B|---------------------------------------------------------------------------|
G|---------------------------------------------------------------------------|
D|---------------------------------------------------------------------------|
A|---------------------------------------------------------------------------|
E|---------------------------------------------------------------------------|

e|---------------------------------------------------------------------------|
B|---------------------------------------------------------------------------|
G|---------------------------------------------------------------------------|
D|---------------------------------------------------------------------------|
A|---------------------------------------------------------------------------|
E|---------------------------------------------------------------------------|


Solo (Guitar 2)
e|---2--2-2-2-2-2------------------------------------------------------------|
B|---2--2-2-2-2-2--3--3-3-3-3-3----------------------------------------------|
G|---2--2-2-2-2-2--2--2-2-2-2-2--2--2-2-2-2-2--9--9-9-9-9-9------------------|
D|---4--4-4-4-4-4--0--0-0-0-0-0--2--2-2-2-2-2--9--9-9-9-9-9------------------|
A|---x--x-x-x-x-x----------------0--0-0-0-0-0--7--7-7-7-7-7------------------|
E|---2--2-2-2-2-2------------------------------------------------------------|

e|---2--2-2-2-2-2------------------------------------------------------------|
B|---2--2-2-2-2-2--3--3-3-3-3-3----------------------------------------------|
G|---2--2-2-2-2-2--2--2-2-2-2-2--2--2-2-2-2-2--------------------------------|
D|---4--4-4-4-4-4--0--0-0-0-0-0--2--2-2-2-2-2--2--2-2-2-2-2------------------|
A|---x--x-x-x-x-x----------------0--0-0-0-0-0--2--2-2-2-2-2------------------|
E|---2--2-2-2-2-2------------------------------0--0-0-0-0-0------------------|

Verse 3
e|---------------------------------------------------------------------------|
B|---------------------------------------------------------------------------|
G|---11-11-1111-11-11-11-9-9/11-11-11-111111------11---9h11------------------|
D|---11-11-1111-11-11-11-9-9/11-11-11-111111---11----------------------------|
A|---9--9--9-9--9--9--9--7-7/9--9--9--9-9-9--9-------9-----------------------|
E|---------------------------------------------------------------------------|

e|---------------------------------------------------------------------------|
B|---------------------------------------------------------------------------|
G|---11-11-1111-11-11-11-9-9/11-11-11-111111-6-6-6/9-9/11--------------------|
D|---11-11-1111-11-11-11-9-9/11-11-11-111111-6-6-6/9-9/11--------------------|
A|---9--9--9-9--9--9--9--7-7/9--9--9--9-9-9--4-4-4/7-7/9---------------------|
E|---------------------------------------------------------------------------|

Chorus 3
e|---2--2-2-2-2-2------------------------------------------------------------|
B|---2--2-2-2-2-2--3--3-3-3-3-3----------------------------------------------|
G|---2--2-2-2-2-2--2--2-2-2-2-2--2--2-2-2-2-2--9--9-9-9-9-9------------------|
D|---4--4-4-4-4-4--0--0-0-0-0-0--2--2-2-2-2-2--9--9-9-9-9-9------------------|
A|---x--x-x-x-x-x----------------0--0-0-0-0-0--7--7-7-7-7-7------------------|
E|---2--2-2-2-2-2------------------------------------------------------------|

e|---2--2-2-2-2-2------------------------------------------------------------|
B|---2--2-2-2-2-2--3--3-3-3-3-3----------------------------------------------|
G|---2--2-2-2-2-2--2--2-2-2-2-2--2--2-2-2-2-2--------------------------------|
D|---4--4-4-4-4-4--0--0-0-0-0-0--2--2-2-2-2-2--2--2-2-2-2-2------------------|
A|---x--x-x-x-x-x----------------0--0-0-0-0-0--2--2-2-2-2-2------------------|
E|---2--2-2-2-2-2------------------------------0--0-0-0-0-0------------------|

Ending (Guitar 1)
e|---14-14-12/14--14-14-1116-17--14-14-12/14-9-9-9/121212/14-----------------------|
B|---------------------------------------------------------------------------------|
G|---11-11-9-/11--11-11-9-13-14--11-11-9-/11-6-6-6/9-9-9-/11-----------------------|
D|---------------------------------------------------------------------------------|
A|---------------------------------------------------------------------------------|
E|---------------------------------------------------------------------------------|

Ending (Guitar 2)
e|---19p14-17p14-------19p14-17p14-------19p14-17p14-------19p14-17p14-------14~---|
B|---------------17p14-------------17p14-------------17p14-------------17p14-------|
G|---------------------------------------------------------------------------------|
D|---------------------------------------------------------------------------------|
A|---------------------------------------------------------------------------------|
E|---------------------------------------------------------------------------------|

************************************

| /   slide up
| \   slide down
| h   hammer-on
| p   pull-off
| ~   vibrato
| +   harmonic
| x   Mute note
| b   Bend
| pb  Pre-bend
| br  Bend release
| pbr Pre-bend release
| brb Bend release bend

************************************
Добавлено: 17.10.2015
Другие материалы по этой песне:
  • Аккорды и текст

Страница создана 17.10.2015
http://primanota.ru/misc-unsigned-bands/miracles-energy-infinite-chords.htm
Привет, Гость.
Предлагаем пройти революционный курс по гитаре.
Подарок от PrimaNota.Ru, забирай!