PrimaNota.ru - самый крупный в мире бесплатный архив песенных текстов, аккордов, табулатур и нот


Misc Unsigned Bands - Monday Aint Happening - Critical - таба

Регистрация Запомнить меня
Войти через:  Facebook Google Twitter Vk Yandex Mail.ru

Misc Unsigned Bands - Monday Aint Happening - Critical - таба

Печатать
Просмотров: 106
Уроки эстрадного вокала в Санкт-Петербурге
-------------------------------------------------------------------------------
                             Critical - Monday Ain't Happening
-------------------------------------------------------------------------------
Tabbed by:
E-mail:

Tuning: Standard

(/) Slide Up  (\) Slide Down  (h) Hammer On  (p) Pull Off  (b) Bend (r) Release (v) Vibrato

Verse 1:

E|-------|                         |-------------------------------------------------|
B|-------|                         |-------------------------------------------------|
G|-------|                         |-12-12-12-12-12-12-12-12-12-12-12-12-12-12-12-12-|
D|---5---|                         |-------------------------------------------------|
A|---5---|                         |-10-10-10-10-10-10-10-10-10-10-10-10-10-10-10-10-|
E|---3---|                         |-------------------------------------------------|

E|-------------------------------------------------|---------------------------------|
B|-------------------------------------------------|---------------------------------|
G|-11-11-11-11-11-11-11-11-12-12-12-12-12-12-12-12-|-5-5-5-5-5-5-5-5-5-5-5-5-5-5-5-5-|
D|-------------------------------------------------|---------------------------------|
A|--9--9--9--9--9--9--9--9-10-10-10-10-10-10-10-10-|-3-3-3-3-3-3-3-3-3-3-3-3-3-3-3-3-|
E|-------------------------------------------------|---------------------------------|

E|---------------------------------|-------------------------------------------------|
B|---------------------------------|-------------------------------------------------|
G|-7-7-7-7-7-7-7-7-7-7-7-7-7-7-7-7-|-12-12-12-12-12-12-12-12-12-12-12-12-12-12-12-12-|
D|---------------------------------|-------------------------------------------------|
A|-5-5-5-5-5-5-5-5-5-5-5-5-5-5-5-5-|-10-10-10-10-10-10-10-10-10-10-10-10-10-10-10-10-|
E|---------------------------------|-------------------------------------------------|

E|-------------------------------------------------|---------------------------------|
B|-------------------------------------------------|---------------------------------|
G|-11-11-11-11-11-11-11-11-12-12-12-12-12-12-12-12-|-5-5-5-5-5-5-5-5-5-5-5-5-5-5-5-5-|
D|-------------------------------------------------|---------------------------------|
A|--9--9--9--9--9--9--9--9-10-10-10-10-10-10-10-10-|-3-3-3-3-3-3-3-3-3-3-3-3-3-3-3-3-|
E|-------------------------------------------------|---------------------------------|

Pre-chorus:

E|-------|          E|-------|          E|-------|        E|-------| 
B|-------|          B|-------|          B|-------|        B|-------|
G|-------|          G|-------|          G|-------|        G|---7---|
D|---5---|   x16    D|---4---|    x16   D|---5---|    x16 D|---7---|  x16
A|---5---|          A|---4---|          A|---5---|        A|---5---|
E|---3---|          E|---2---|          E|---3---|        E|-------|

Chorus: x2

E|--------------------------------------------------------------------------------------------------|
B|--------------------------------------------------------------------------------------------------|
G|----------------7-7-7-7-7-7-7--9-9-9-9-9-9-9-9-9-9-9-9-9-9-9-9-9--5-5-5-5-5-5-5-5-5-5-5-5-5-5-5-5-|
D|-5-5-5-5-5-5-5--7-7-7-7-7-7-7--9-9-9-9-9-9-9-9-9-9-9-9-9-9-9-9-9--5-5-5-5-5-5-5-5-5-5-5-5-5-5-5-5-|
A|-5-5-5-5-5-5-5--5-5-5-5-5-5-5--7-7-7-7-7-7-7-7-7-7-7-7-7-7-7-7-7--3-3-3-3-3-3-3-3-3-3-3-3-3-3-3-3-|
E|-3-3-3-3-3-3-3------------------------------------------------------------------------------------|

Interlude:

E|--------------------------------------------------------------------------------------------------|
B|--------------------------------------------------------------------------------------------------|
G|----------------7-7-7-7-7-7-7--9-9-9-9-9-9-9-9-9-9-9-9-9-9-9-9-9--5-5-5-5-5-5-5-5-5-5-5-5-5-5-5-5-|
D|-5-5-5-5-5-5-5--7-7-7-7-7-7-7--9-9-9-9-9-9-9-9-9-9-9-9-9-9-9-9-9--5-5-5-5-5-5-5-5-5-5-5-5-5-5-5-5-|
A|-5-5-5-5-5-5-5--5-5-5-5-5-5-5--7-7-7-7-7-7-7-7-7-7-7-7-7-7-7-7-7--3-3-3-3-3-3-3-3-3-3-3-3-3-3-3-3-|
E|-3-3-3-3-3-3-3------------------------------------------------------------------------------------|

Verse 2:

E|---------------------------------|-------------------------------------------------|
B|---------------------------------|-------------------------------------------------|
G|-7-7-7-7-7-7-7-7-7-7-7-7-7-7-7-7-|-12-12-12-12-12-12-12-12-12-12-12-12-12-12-12-12-|
D|---------------------------------|-------------------------------------------------|
A|-5-5-5-5-5-5-5-5-5-5-5-5-5-5-5-5-|-10-10-10-10-10-10-10-10-10-10-10-10-10-10-10-10-|
E|---------------------------------|-------------------------------------------------|

E|-------------------------------------------------|---------------------------------|
B|-------------------------------------------------|---------------------------------|
G|-11-11-11-11-11-11-11-11-12-12-12-12-12-12-12-12-|-5-5-5-5-5-5-5-5-5-5-5-5-5-5-5-5-|
D|-------------------------------------------------|---------------------------------|
A|--9--9--9--9--9--9--9--9-10-10-10-10-10-10-10-10-|-3-3-3-3-3-3-3-3-3-3-3-3-3-3-3-3-|
E|-------------------------------------------------|---------------------------------|

Pre-chorus:

Chorus:

Bridge chords: x2

E|-------|     E|-------|     E|-------|   E|-------| 
B|-------|     B|-------|     B|-------|   B|-------|
G|-------|     G|-------|     G|---7---|   G|---5---|                  
D|---5---|     D|---2---|     D|---7---|   D|---5---|  
A|---5---|     A|---2---|     A|---5---|   A|---3---|
E|---3---|     E|---0---|     E|-------|   E|-------|


Bridge riff: x2

E|----------------------------------------------|
B|----------------------------------------------|
G|----------------------------------------------|
D|---9----------------------10-9------9-9-------|
A|-----10-10-10-10-10-10-10------10-10----10-10-|
E|----------------------------------------------|

After bridge riff slide to these notes:

E|-----------------|
B|-----------------|
G|-----------------|
D|---9--5--16--12--|
A|-----------------|
E|-----------------|

Bridge ending 'solo'x2

E|--------------------------------------------------|
B|---------15-------15------15-------15-------15----|
G|---11-12----11-12----11-12---11-12----11-12----11-|
D|--------------------------------------------------|
A|--------------------------------------------------|
E|--------------------------------------------------|

Chorus: x2

************************************

| /   slide up
| \   slide down
| h   hammer-on
| p   pull-off
| ~   vibrato
| +   harmonic
| x   Mute note
| b   Bend
| pb  Pre-bend
| br  Bend release
| pbr Pre-bend release
| brb Bend release bend

************************************
Добавлено: 17.10.2015
Другие материалы по этой песне:
  • Аккорды и текст

Страница создана 17.10.2015
http://primanota.ru/misc-unsigned-bands/monday-aint-happening-critical-chords.htm
Привет, Гость.
Предлагаем пройти революционный курс по гитаре.
Подарок от PrimaNota.Ru, забирай!