PrimaNota.ru - самый крупный в мире бесплатный архив песенных текстов, аккордов, табулатур и нот


Misc Unsigned Bands - The Longest Winter - Summer - таба, видео

Регистрация Запомнить меня
Войти через:  Facebook Google Twitter Vk Yandex Mail.ru

Misc Unsigned Bands - The Longest Winter - Summer - таба, видео

Печатать
Просмотров: 127
Уроки эстрадного вокала в Санкт-Петербурге
-------------------------------------------------------------------------------
                             SUMMER LOVE - The Longest Winter
-------------------------------------------------------------------------------
Tabbed by: Gabe Michaux (my song)
E-mail: thelongestwinterguys@gmail.com

this is my song hope you enjoy
(capo on fourth fret) (number on tabs are based on how many frets from capo)
h (hammer on)
p (pull off)
/ (slide)
* (harmonic)
Tuning:eadgbe

intro
e|-00---------00---------------------------------00---------------00-00--12*-------------------------|
B|-00---------00---------33-3/5p0----33-3/5p0----00---------------88-77-12*-33-3/5p0----33-3/5p0-----|
G|-77---------77---------00------2p0-00------2p0-77-00-7-------7------------00------2p0-00------2p0--|
D|-55-5h7p5---55-7h9p7---22----------22----------55-55--5-5h7/9-9-----------22----------22-----------|
A|-77------7--77-------9-33----------33----------77-77---7------------------33----------33-----------|
E|---------------------------------------------------------------------------------------------------|

e|-00---------00---------------------------------00---------------00-00--12*--------------------------------|
B|-00---------00---------33-3/5p0----33-3/5p0----00---------------88-77-12*-33-3/5p0---3h5p3------------ 0--|
G|-77---------77---------00------2p0-00------2p0-77-00-7-------7------------00------2p0------5p4p0-2h4p0-2--|
D|-55-5h7p5---55-7h9p7---22----------22----------55-55--5-5h7/9-9-----------22---------------------------1--|
A|-77------7--77-------9-33----------33----------77-77---7------------------33---------------------------2--|
E|----------------------------------------------------------------------------------------------------------|

verse
e|--------------------------------------------------------------------- 2h3p2-----3-5/7---|
B|-------------------------3p0---------------------------------------- 3-----3/5p0-----7--|
G|------------554400-----44---2p0--------------55-4h5p4--------- 44-2h4-------------------|
D|----55--77-----------22---------4----55--77----------7-5p0---22-------------------------|
A|-77---55--77-------33------------4-77--55--77------------- 33---------------------------|
E|----------------------------------------------------------------------------------------|

chorus
e|----------------0---------------------------------------|
B|-3--33----------0--------0-------(x3)--3--33---------0--|
G|-0--00----------4-4/7p0--2-2/4p0-------0--00---------2--|
D|-2--22----------5--------4-------------2--22---------1--|
A|-3--33-----2h5--7--------5-------------3--33-----2h5-2--|
E|------0h2h5---------------------------------0h2h5-------|

bridge
e|---------------------------------------(x3)-----------------------------------------------------------|
B|-0-0-------0-0----3-3-3/5/3-2-2-3/5/3p0------0-0-------0-0------------3-3-3/5/3p0--3h5p3------------0--|
G|-7-7-------7-7--4-0-0-------0-0--------------7-7-------7-7-4h5p4------0-0---------------5p4p0-2h4p0-2--|
D|-5-5-5h7p5-5-5-7--2-2-------2-2--------------5-5-5h7p5-5-5------7p5p0-2-2---------------------------1--|
A|-7-7-------7-7----3-3-------3-3--------------7-7-------7-7------------3-3---------------------------2--|
E|------------------------------------------------------------------------------------------------------|

solo
e|---------------------2h3p2----------------5h7p0-------------7h10/3--(3X)--|
B|------------------3h5-----3--------------------7h8p0-----7h8--------------|
G|---------------2h4---------4p2p0--------------------7h9p0-----------------|
D|-2--5--4----2h5-------------------4--5--2---------------------------------|
A|-3--7--5-2h5----------------------5--7--3---------------------------------|
E|--------------------------------------------------------------------------|

e|---------------------2h3p2----------------5h7p0-------------------|
B|------------------3h5-----3--------------------7h8p0-----7h8p0-0--|
G|---------------2h4---------4p2p0--------------------7h9p0------2--|
D|-2--5--4----2h5-------------------4--5--2----------------------1--|
A|-3--7--5-2h5----------------------5--7--3----------------------2--|
E|------------------------------------------------------------------|

outro
(play until song fades out)
e|---------------------------------------(x3)-------------------------------------------3p2-----|
B|-0-0-------0-0----3-3-3/5/3-2-2-3/5/3p0------0-0-------0-0------------3-3-3/5/3-3-3-3h5---3p0--|
G|-7-7-------7-7--4-0-0-------0-0--------------7-7-------7-7-4h5p4------0-0-------0-0------------|
D|-5-5-5h7p5-5-5-7--2-2-------2-2--------------5-5-5h7p5-5-5------7p5p0-2-2-------2-2------------|
A|-7-7-------7-7----3-3-------3-3--------------7-7-------7-7------------3-3-------3-3------------|
E|----------------------------------------------------------------------------------------------|

order of song
intro
verse
chorus
intro
verse
chorus
bridge
verse
chorus
solo
chorus
outro

 here is the music for it https://www.youtube.com/watch?v=jcoz1PMyiVY

************************************
Добавлено: 26.04.2016
Другие материалы по этой песне:
  • Аккорды и текст

Страница создана 26.04.2016
http://primanota.ru/misc-unsigned-bands/longest-winter-summer-chords.htm
Привет, Гость.
Предлагаем пройти революционный курс по гитаре.
Подарок от PrimaNota.Ru, забирай!