PrimaNota.ru - самый крупный в мире бесплатный архив песенных текстов, аккордов, табулатур и нот


Misc Unsigned Bands - Vianova - A Night With Evelyn - таба

Регистрация Запомнить меня
Войти через:  Facebook Google Twitter Vk Yandex Mail.ru

Misc Unsigned Bands - Vianova - A Night With Evelyn - таба

Печатать
Просмотров: 89
Уроки эстрадного вокала в Санкт-Петербурге
-------------------------------------------------------------------------------
                         A NIGHT WITH EVELYN - Vianova
-------------------------------------------------------------------------------
Tabbed by: Eric Morgan
E-mail: eric.morgan.641@gmail.com

Tab for "A Night with Evelyn" by Vianova (Columbus, Ohio)

www.vianovamusic.com
www.facebook.com/vianovamusic
vianovamusic.bandcamp.com

Tuning: Drop D (DADGBE)

Intro:
e|-------------------------------------------------------------------------------------------------| (x3)
B|------------9---------------------9----------------------8------------------8--------------------|
G|------10------10----10------10------10----10--------9------9----9------9------9----9-------------|
D|---10----10------10------10----10------10--------10---10-----10-----10---10-----10---------------|
A|-8---------------------8-----------------------7------------------7------------------------------|
D|-------------------------------------------------------------------------------------------------| 

Pre-Verse:
e|-------------------------------------------------------------------------------------------------| (x2)
B|-------------------------------------------------------------------------------------------------|
G|-------------------------------------------------------------------------------------------------|
D|-----------6--6--6-6----------6-6-6-5-5-5-----------8--8--8-8-----------8-8-8-6-6-6--------------|
A|-------------------------------------------------------------------------------------------------|
D|-3--3--3-3-----------3--3-3-3-------------2--2--2-2-----------2--2--2-2--------------------------|

Verse 1:
e|-------------------------------------------------------------| (x2)      e|----------------------|
B|-------------------------------------------------------------|           B|----------------------|
G|-------------------------------------------------------------|           G|----------------------|
D|-----------6------------6-6-6-5-5-5-----------8------------8-|           D|-8-8-6-6-6------------|
A|-------------------------------------------------------------|           A|----------------------|
D|-3--3--3-3----3--3--3-3-------------2--2--2-2----2--2--2-2---|           D|----------------------|

Chorus 1: 

Rhythm Guitar
e|-------------------------------------------------------------------------------------------------|
B|-------------------------------------------------------------------------------------------------|
G|-------------------------------------------------------------------------------5-5-5-5-5-5-------|
D|-3--3-3-3-3-3--3-3-3-3-3--3-3-3-3-6-6-6-6-6-6-1--1-1-1-1-1--1-1-1-1-1--1-1-1-1-5-5-5-5-5-5-------|
A|-3--3-3-3-3-3--3-3-3-3-3--3-3-3-3-6-6-6-6-6-6-1--1-1-1-1-1--1-1-1-1-1--1-1-1-1-3-3-3-3-3-3-------|
D|-3--3-3-3-3-3--3-3-3-3-3--3-3-3-3-6-6-6-6-6-6-1--1-1-1-1-1--1-1-1-1-1--1-1-1-1-------------------|

e|-------------------------------------------------------------------------------------------------| 
B|-------------------------------------------------------------------------------------------------|
G|--------------------------------------------------------------------8-8-8-8-8-8-8-8-8-8-8-8------|
D|-3--3-3-3-3-3--3-3-3-3-3--3-3-3-3-6-6-6-6-6-6-1--1-1-1-1-1--1-1-1-1-8-8-8-8-8-8-8-8-8-8-8-8------|
A|-3--3-3-3-3-3--3-3-3-3-3--3-3-3-3-6-6-6-6-6-6-1--1-1-1-1-1--1-1-1-1-6-6-6-6-6-6-6-6-6-6-6-6------|
D|-3--3-3-3-3-3--3-3-3-3-3--3-3-3-3-6-6-6-6-6-6-1--1-1-1-1-1--1-1-1-1------------------------------|

e|-------------------------------------------------------------------------------------------------|
B|-------------------------------------------------------------------------------------------------|
G|-------------------------------------------------------------------------------------------------|
D|-3---3--5--6---6--5--1---2---3---3--5--6--6-5-3-10-10-10-10-10-10-10-10-10-10-10-10--------------|
A|-3---3--5--6---6--5--1---2---3---3--5--6--6-5-3-10-10-10-10-10-10-10-10-10-10-10-10--------------|
D|-3---3--5--6---6--5--1---2---3---3--5--6--6-5-3-10-10-10-10-10-10-10-10-10-10-10-10--------------|

e|-------------------------------------------------------------------------------------------------|
B|-------------------------------------------------------------------------------------------------|
G|-------------------------------------------------------------------------------------------------|
D|-10-10-10-10-10-10-10-10-10-10-10-10-------------------------------------------------------------|
A|-10-10-10-10-10-10-10-10-10-10-10-10-------------------------------------------------------------|
D|-10-10-10-10-10-10-10-10-10-10-10-10-------------------------------------------------------------|

Lead Guitar
e|--------------------------------------| (x2)  e|-------------------------------------------------| (x2)
B|--------------------------------------|       B|----------13-------13-------13-------------------|
G|----------13----------------13-12-----|       G|-10-10-10----10-10----10-10----10-10-------------|
D|-10-10-10----10-10-10-10-10-------13--|       D|-------------------------------------------------|
A|--------------------------------------|       A|-------------------------------------------------|
D|--------------------------------------|       D|-------------------------------------------------|

e|--------------------------------------| (x2) 
B|--------------------------------------|       
G|----------13----------------13-12-----|       
D|-10-10-10----10-10-10-10-10-------13--|       
A|--------------------------------------|      
D|--------------------------------------|       

e|-------------------------------------------------------------------------------------------------| 
B|----------13-------13-------13-----------------18-------18-------18------------------------------|
G|-10-10-10----10-10----10-10----10-10-/15-15-15----15-15----15-15----15-15------------------------|
D|-------------------------------------------------------------------------------------------------|
A|-------------------------------------------------------------------------------------------------|
D|-------------------------------------------------------------------------------------------------|

e|--------------------------------------| (x3)  e|-------------------------------------------------|
B|----------18-------18-------20--------|       B|-21-------21-------20-------20-------------------|
G|-17-17-17----17-17----17-17----17-17--|       G|----17-17----17-17----17-17----17-17-------------|
D|--------------------------------------|       D|-------------------------------------------------|
A|--------------------------------------|       A|-------------------------------------------------|
D|--------------------------------------|       D|-------------------------------------------------|

e|--------------------------------------| (x2)  
B|----------18-------18-------20--------|       
G|-17-17-17----17-17----17-17----17-17--|       
D|--------------------------------------|       
A|--------------------------------------|       
D|--------------------------------------|       

e|--------------------------------------20-------20-------20-------20------------------------------|
B|-21-------21-------21--------21------------------------------------------------------------------|
G|----17-17----17-17----17--17----17-17----17-17----17-17----17-17----17-17------------------------|
D|-------------------------------------------------------------------------------------------------|
A|-------------------------------------------------------------------------------------------------|
D|-------------------------------------------------------------------------------------------------|

Verse 2:
e|-------------------------------------------------------------------------------------------------|
B|-------------------------------------------------------------------------------------------------|
G|-------------------------------------------------------------------------------------------------|
D|-----------------------------------------------------8-8-8-6-6-6---------------------------------|
A|-------------------------------------------------------------------------------------------------|
D|-3--3--3-3-3---3--3--3-3-3---2--2--2-2-2---2--2--2-2---------------------------------------------|

e|-------------------------------------------------------------------------------------------------|
B|-------------------------------------------------------------------------------------------------|
G|-------------------------------------------------------------------------------------------------|
D|-----------6-------------6-6-6-5-5-5-----------8-------------8-8-8-6-6-6-------------------------|
A|-------------------------------------------------------------------------------------------------|
D|-3--3--3-3-----3--3--3-3-------------2--2--2-2-----2--2--2-2-------------------------------------|

Chorus 2: Same as Chorus 1

Bridge 1: 
e|-------------------------------------------------------------------------------------------------|
B|-------------------------------------------------------------------------------------------------|
G|-------------------------------------------------------------------------------------------------|
D|-15\---15\---15\---15--15--15-15-------------------------------------1-1-1-2-2-2-3~--------------|
A|-15\---15\---15\---15--15--15-15-------------------1-1-1-2-2-2-3-3-3-----------------------------|
D|-15\---15\---15\---15--15--15-15-0-0-0-2-2-2-3-3-3-----------------------------------------------|

Intro Reprise:
e|-------------------------------------------------------------------------------------------------| (x5)
B|------------9---------------------9----------------------8------------------8--------------------|
G|------10------10----10------10------10----10--------9------9----9------9------9----9-------------|
D|---10----10------10------10----10------10--------10---10-----10-----10---10-----10---------------|
A|-8---------------------8-----------------------7------------------7------------------------------|
D|-------------------------------------------------------------------------------------------------|

Bridge 2:
e|-------------------------------------------------------------------------------------------------|
B|-------------------------------------------------------------------------------------------------|
G|-------------------------------------------------------------------------------------------------|
D|-------------------------------------------------------------------------------------------------|
A|-8-8-8-8-8-8-8-8-8-8-8-8-8-8-8-8-8-8-8-8-8-8-8-8-7-7-7-7-7-7-7-7-7-7-7-7-7-7-7-7-7-7-7-7-7-7-7-7-|
D|-------------------------------------------------------------------------------------------------|

e|-------------------------------------------------------------------------------------------------|
B|-------------------------------------------------------------------------------------------------|
G|-------------------------------------------------------------------------------------------------|
D|-------------------------------------------------------------------------------------------------|
A|-3-3-3-3-3-3-3-3-3-3-3-3-3-3-3-3-3-3-3-3-3-3-3-3-6-6-6-6-6-6-6-6-6-6-6-6-7-7-7-7-7-7-------------|
D|-------------------------------------------------------------------------------------------------|

e|-------------------------------------------------------------------------------------------------|
B|-------------------------------------------------------------------------------------------------|
G|-------------------------------------------------------------------------------------------------|
D|-------------------------------------------------------------------------------------------------|
A|-10-10-10-10-10-10-8--8--8-8-8/--11\--8--8--8-8-8/--11\--7--7--7-7-7/--11\--7--7--7-7-7/--11\----|
D|-------------------------------------------------------------------------------------------------|

e|-------------------------------------------------------------------------------------------------|
B|-------------------------------------------------------------------------------------------------|
G|-------------------------------------------------------------------------------------------------|
D|-------------------------------------------------------------------------------------------------|
A|-3--3--3-3-3/--8\--3--3--3-3-3/--8\--/6-6-6-6-6-6-6-6-6-6-6-6-7-7-7-7-7-7-10-10-10-10-10-10------|
D|-------------------------------------------------------------------------------------------------|

Chorus 3: Same as Chorus 1 and 2

Outro:

Rhythm Guitar
e|-------------------------------------------------------------------------------------------------|
B|-------------------------------------------------------------------------------------------------|
G|-------------------------------------------------------------------------------------------------|
D|-15\---15\---15\---15--15--15-15-15--------------------------------------------------------------|
A|-15\---15\---15\---15--15--15-15-15--------------------------------------------------------------|
D|-15\---15\---15\---15--15--15-15-15--------------------------------------------------------------|

Lead Guitar
e|-20\---20\---20\---20--20--20-20-20--------------------------------------------------------------|
B|-------------------------------------------------------------------------------------------------|
G|-------------------------------------------------------------------------------------------------|
D|-------------------------------------------------------------------------------------------------|
A|-------------------------------------------------------------------------------------------------|
D|-------------------------------------------------------------------------------------------------|

************************************

| /   slide up
| \   slide down
| h   hammer-on
| p   pull-off
| ~   vibrato
| +   harmonic
| x   Mute note
| b   Bend
| pb  Pre-bend
| br  Bend release
| pbr Pre-bend release
| brb Bend release bend

************************************
Добавлено: 26.04.2016
Другие материалы по этой песне:
  • Аккорды и текст

Страница создана 26.04.2016
http://primanota.ru/misc-unsigned-bands/vianova-a-night-with-evelyn-chords.htm
Привет, Гость.
Предлагаем пройти революционный курс по гитаре.
Подарок от PrimaNota.Ru, забирай!