PrimaNota.ru - самый крупный в мире бесплатный архив песенных текстов, аккордов, табулатур и нот


Misc Unsigned Bands - Wallace And Gromit Theme Tune- Theme And Chase - таба

Регистрация Запомнить меня
Войти через:  Facebook Google Twitter Vk Yandex Mail.ru

Misc Unsigned Bands - Wallace And Gromit Theme Tune- Theme And Chase - таба

Печатать
Просмотров: 43
-------------------------------------------------------------------------------
                             Wallace and Gromit theme tune.
-------------------------------------------------------------------------------
Tabbed by:Jad:)
E-mail:

Tuning:Standard

e|3-1-0--3-1-0-3----5-3-5-7-5-3-1-0------------------------------------------|
B|--------------3------------------------------------------------------------|
G|---------------------------------------------------------------------------|
D|---------------------------------------------------------------------------|
A|---------------------------------------------------------------------------|
E|---------------------------------------------------------------------------|

e|3-1-0--3-1-0-3----5-3-5-7--------------------------------------------------|
B|--------------3----------7-9-11-12-----------------------------------------|
G|---------------------------------------------------------------------------|
D|---------------------------------------------------------------------------|
A|---------------------------------------------------------------------------|
E|---------------------------------------------------------------------------|


This repeats itself over and over again, have fun!
Idk if its very accurate but xD
Jad!
Добавлено: 26.04.2016
Другие материалы по этой песне:
  • Аккорды и текст

Страница создана 26.04.2016
http://primanota.ru/misc-unsigned-bands/wallace-and-gromit-theme-tune-theme-and-chase-chords.htm
Привет, Гость.
Предлагаем пройти революционный курс по гитаре.
Подарок от PrimaNota.Ru, забирай!