PrimaNota.ru - самый крупный в мире бесплатный архив песенных текстов, аккордов, табулатур и нот


Misc Unsigned Bands - William Walford - Sweet Hour Of Prayer - таба

Регистрация Запомнить меня
Войти через:  Facebook Google Twitter Vk Yandex Mail.ru

Misc Unsigned Bands - William Walford - Sweet Hour Of Prayer - таба

Печатать
Просмотров: 71
Уроки эстрадного вокала в Санкт-Петербурге
-------------------------------------------------------------------------------
                        sweet hour of prayer - william walford
-------------------------------------------------------------------------------
Tabbed by:
E-mail:
key of C
Tuning:E-A-D-G-B-e

e|----------------------------------------------------------------------------|
B|---------------------------------0---1--------------------------------------|
G|----------------0------0----2----0---2------2---0---------------------------|
D|-------2----3---2------2----3-3---------3---3---2-----2-2--0------0---2--0--|
A|--3----3----5------3------------------------------3---3-3--2-3----2---3--2--|
E|---------------------------------------------------------------------------3|
  sweet hour of prayer sweet hour of prayer that calls me from a world of care
e|---------------------------------------------------------------------------|
B|-----------------------0---1-----------------------------------------------|
G|------------0---0--2---0---2------2----0-----------------------------0-----|
D|-----2----3-2---2--3-3--------3---3----2--2----2-0------2--0---------2-----|
A|-3---3----5---3-------------------------3-3----3-2--3---3--2----3----------|
E|---------------------------------------------------------------------------|
  and bids me at my Fathers throne make all my wants and wishes known in 
e|----------------------------------------------------------------------------|
B|-1--0---1--------------------------1---0---1--------------------------------|
G|--------0----2---0--------0----0-----------0-2----0---------------------0---|
D|-2--3--------3---2---2----2----2---2---3-----3----2---2--0--------2---3-2---|
A|---------------------3--------------------------------3--2----3---3---5---3-|
E|----------------------------------------------------------------------------|
  seasons of distress and grief my soul has often found relief and oft escaped
e|---------------------------------------------------------------------------|
B|----------0----1-----------------------------------------------------------|
G|-0----2---0----2----2--0---------------------------------------------------|
D|-2----3-3-----------3--2---2-2-0---------2--0------------------------------|
A|------------------------3--3-3-2---3-----3--2----3-------------------------|
E|---------------------------------------------------------------------------|
  the tempters snare by thy return sweet hour of prayer


************************************

| /   slide up
| \   slide down
| h   hammer-on
| p   pull-off
| ~   vibrato
| +   harmonic
| x   Mute note
| b   Bend
| pb  Pre-bend
| br  Bend release
| pbr Pre-bend release
| brb Bend release bend

************************************
Добавлено: 26.04.2016
Другие материалы по этой песне:
  • Аккорды и текст

Страница создана 26.04.2016
http://primanota.ru/misc-unsigned-bands/william-walford-sweet-hour-of-prayer-chords.htm
Привет, Гость.
Предлагаем пройти революционный курс по гитаре.
Подарок от PrimaNota.Ru, забирай!