PrimaNota.ru - самый крупный в мире бесплатный архив песенных текстов, аккордов, табулатур и нот


Misc Unsigned Bands - The Youthful Elders - Manhattan - таба

Регистрация Запомнить меня
Войти через:  Facebook Google Twitter Vk Yandex Mail.ru

Misc Unsigned Bands - The Youthful Elders - Manhattan - таба

Печатать
Просмотров: 52
The Youthful Elders - Manhattan (Kings of Leon cover)

Watch the youtube video for the strumming pattern

Tuning: E B D F# B e (tune A string up to B, drop G string down to F#)



INTRO

|---0---0-----0---0---|
|---0---0-----0---0---|
|---0-h-2-----2-h-3---|
|---2---2-----2---2---| 
|---0---0-----0---0---| (x2)
|---0---0-----0---0---|

VERSE 1 ("I like to dance all night...")

|---0---0-----0---0---|
|---0---0-----0---0---|
|---0-h-2-----2-h-3---|
|---2---2-----2---2---| 
|---0---0-----0---0---| (x2)
|---0---0-----0---0---|

CHORUS ("I say...")

|---0----0--0--0----0----0--0--0----0----0--0--0----0----0--0--0---|
|---0----0--0--0----0----0--0--0----0----0--0--0----0----0--0--0---|
|---2----x--x--x----2----x--x--x----3----x--x--x----3----x--x--x---|
|---2----9--7--6----2----9--7--6----2----9--7--6----2----9--7--6---| 
|---0----0--0--0----0----0--0--0----0----0--0--0----0----0--0--0---| (x4)
|---0----0--0--0----0----0--0--0----0----0--0--0----0----0--0--0---|

VERSE 2 ("We're gonna fuel the fire...")

|---0---0-----0---0---|
|---0---0-----0---0---|
|---0-h-2-----2-h-3---|
|---2---2-----2---2---| 
|---0---0-----0---0---| (x2)
|---0---0-----0---0---|

CHORUS ("I say...")

|---0----0--0--0----0----0--0--0----0----0--0--0----0----0--0--0---|
|---0----0--0--0----0----0--0--0----0----0--0--0----0----0--0--0---|
|---2----x--x--x----2----x--x--x----3----x--x--x----3----x--x--x---|
|---2----9--7--6----2----9--7--6----2----9--7--6----2----9--7--6---| 
|---0----0--0--0----0----0--0--0----0----0--0--0----0----0--0--0---| (x4)
|---0----0--0--0----0----0--0--0----0----0--0--0----0----0--0--0---|

|---0---------------------------------0----------------------------------|
|---0---------------------------------0----------------------------------|
|---2---7-7----------------7-7--------3---7-7----------------7-7---------|
|---2-------4-4-6--6-7-9-9-----6-6-4--2-------4-4-6--6-7-9-9-----6-6-4---|
|---0---------------------------------0----------------------------------| (x2)
|---0---------------------------------0----------------------------------|

VERSE 3 ("I'm on a hunt to kill...")

|---0---0-----0---0---|
|---0---0-----0---0---|
|---0-h-2-----2-h-3---|
|---2---2-----2---2---| 
|---0---0-----0---0---| (x2)
|---0---0-----0---0---|

CHORUS ("I say...")

|---0----0--0--0----0----0--0--0----0----0--0--0----0----0--0--0---|
|---0----0--0--0----0----0--0--0----0----0--0--0----0----0--0--0---|
|---2----x--x--x----2----x--x--x----3----x--x--x----3----x--x--x---|
|---2----9--7--6----2----9--7--6----2----9--7--6----2----9--7--6---| 
|---0----0--0--0----0----0--0--0----0----0--0--0----0----0--0--0---| (x3)
|---0----0--0--0----0----0--0--0----0----0--0--0----0----0--0--0---|

|---0----0--0--0----0----0--0--0----0----0--0--0----0-0-0-0-0---|
|---0----0--0--0----0----0--0--0----0----0--0--0----0-0-0-0-0---|
|---2----x--x--x----2----x--x--x----3----x--x--x----3-3-3-3-3---|
|---2----9--7--6----2----9--7--6----2----9--7--6----2-2-2-2-2---|
|---0----0--0--0----0----0--0--0----0----0--0--0----0-0-0-0-0---| (x1)
|---0----0--0--0----0----0--0--0----0----0--0--0----0-0-0-0-0---|

BRIDGE ("It's gonna take your hand...")

|---9--9--9--9--9--9---x---|
|---10-10-10-10-10-10--9---|
|---9--9--9--9--9--9---10--|
|---11-11-11-11-11-11--x---|
|---9--9--9--9--9--9---9---| (x4)
|---9--9--9--9--9--9---0---|

("...forever roam...")

|---0---------------------------------0----------------------------------|
|---0---------------------------------0----------------------------------|
|---2---7-7----------------7-7--------3---7-7----------------7-7---------|
|---2-------4-4-6--6-7-9-9-----6-6-4--2-------4-4-6--6-7-9-9-----6-6-4---|
|---0---------------------------------0----------------------------------| (x2)
|---0---------------------------------0----------------------------------|

OUTRO                             ENDING

|---0-0--0-0---0-0--0-0---|      |---0-0--0-0---0---|
|---0-0--0-0---0-0--0-0---|      |---0-0--0-0---0---|
|---5-5--5-5---5-5--5-5---|      |---3-3--3-3---2---|
|---6-6--6-6---6-6--6-6---|      |---4-4--4-4---2---|
|---5-5--5-5---0-0--0-0---| (x4) |---0-0--0-0---0---| (x1)
|---0-0--0-0---5-5--5-5---|      |---3-3--3-3---0---|
Добавлено: 26.04.2016
Другие материалы по этой песне:
  • Аккорды и текст

Страница создана 26.04.2016
http://primanota.ru/misc-unsigned-bands/youthful-elders-manhattan-chords.htm
Привет, Гость.
Предлагаем пройти революционный курс по гитаре.
Подарок от PrimaNota.Ru, забирай!