PrimaNota.ru - самый крупный в мире бесплатный архив песенных текстов, аккордов, табулатур и нот


Misc Unsigned Bands - Thy Swagfags - Bjarke Er Gay - таба

Регистрация Запомнить меня
Войти через:  Facebook Google Twitter Vk Yandex Mail.ru

Misc Unsigned Bands - Thy Swagfags - Bjarke Er Gay - таба

Печатать
Просмотров: 34
-------------------------------------------------------------------------------
                             Bjarke er gay - Thy Swagdags
-------------------------------------------------------------------------------
Tabbed by:
E-mail:

Tuning: Intro: E Standard
        Rest of the song: Drop A

e|0------------------0-------------------------------------------------------------------|
B|--0---------------0----------------------------------------------------------|  Intro--| x3
G|----0-----------0----------------------------------------------------------------------|
D|------0-------0------------------------------------------------------------------------|
A|--------0---0--------------------------------------------------------------------------|
E|----------0----------------------------------------------------------------------------|

x5
e||------------------------------------------------------------| Palmuted
B|------------------------------------------------------------|
G|------------------------------------------------------------|
D-----------------------------------------12-------------------| Palmuted
A|---------------------7-8-------------10---------------------|
E|---0+ ---1-1-2-3-1-4-----1-2-4-6-9-8-------1-2-3-4-5-6-8-7--|
Outro
e|------------------------------------------------------------|
B|------------------------------------------------------------|
G|------------------------------------------------------------|
D|------------------------------------------------------------|
A|------------------------------------------------------------|
E|------0000--000---00000---0000---000--0000-------0000--000--|


************************************

| /   slide up
| \   slide down
| h   hammer-on
| p   pull-off
| ~   vibrato
| +   harmonic
| x   Mute note
| b   Bend
| pb  Pre-bend
| br  Bend release
| pbr Pre-bend release
| brb Bend release bend

************************************
Добавлено: 26.04.2016
Другие материалы по этой песне:
  • Аккорды и текст

Страница создана 26.04.2016
http://primanota.ru/misc-unsigned-bands/thy-swagfags-bjarke-er-gay-chords.htm
Привет, Гость.
Предлагаем пройти революционный курс по гитаре.
Подарок от PrimaNota.Ru, забирай!