PrimaNota.ru - самый крупный в мире бесплатный архив песенных текстов, аккордов, табулатур и нот


Misc Unsigned Bands - The Leaving Song - Energy Infinite - таба, видео

Регистрация Запомнить меня
Войти через:  Facebook Google Twitter Vk Yandex Mail.ru

Misc Unsigned Bands - The Leaving Song - Energy Infinite - таба, видео

Печатать
Просмотров: 53
-------------------------------------------------------------------------------
                             The Leaving Song - Energy Infinite
-------------------------------------------------------------------------------
Tabbed by: TheDankTank
E-mail: jonanderson1996@gmail.com

Tuning: Standard (EADGBE)

Intro/Verse

e|---0--0--0-0--0-0--0--/0--0--0-0--0-0--0---0--0--0-0--0-0--0---0--0--0-0--0-0--0---|
B|---0--0--0-0--0-0--0--/0--0--0-0--0-0--0---5--5--5-5--5-5--5---0--0--0-0--0-0--0---|
G|---6--6--6-6--6-6--6--/8--8--8-8--8-8--8---6--6--6-6--6-6--6---8--8--8-8--8-8--8---|
D|---7--7--7-7--7-7--7--/9--9--9-9--9-9--9---6--6--6-6--6-6--6---9--9--9-9--9-9--9---|
A|---7--7--7-7--7-7--7--/9--9--9-9--9-9--9---4--4--4-4--4-4--4---9--9--9-9--9-9--9---|
E|---5--5--5-5--5-5--5--/7--7--7-7--7-7--7-----------------------7--7--7-7--7-7--7---|

Pre-Chorus
Guitar 1 (x4)
e|---------------------------------------------------------------------------|
B|---------------------------------------------------------------------------|
G|-----------------------------------6-6-6-6-6-6-6-6-9-9-9-9-11111111--------|
D|---7-7-7-7-7-7-7-7-9-9-9-9-9-9-9-9-6-6-6-6-6-6-6-6-9-9-9-9-11111111--------|
A|---7-7-7-7-7-7-7-7-9-9-9-9-9-9-9-9-4-4-4-4-4-4-4-4-7-7-7-7-9-9-9-9---------|
E|---5-5-5-5-5-5-5-5-7-7-7-7-7-7-7-7-----------------------------------------|

Guitar 2 (x3)
e|---------------------------------------------------------------------------|
B|---5-----5-----5---7-----7-----7---9-----9----9---10p9---12p9--------------|
G|-----6-----6-----6---8-----8-----8---9-----9----9-------9-----9------------|
D|-------7-----7---------9-----9---------11----11----------------------------|
A|---------------------------------------------------------------------------|
E|---------------------------------------------------------------------------|

e|---------------------------------------------------9--9--9-----------------|
B|---5-----5-----5---7-----7-----7---9-----9----9----12-10-9-----------------|
G|-----6-----6-----6---8-----8-----8---9-----9----9--9--9--9-----------------|
D|-------7-----7---------9-----9---------11----11----11-11-11----------------|
A|---------------------------------------------------------------------------|
E|---------------------------------------------------------------------------|

Chorus
Guitar 1 (x2)
e|---------------------------------------------------------------------------|
B|---5--5----------10-10-----------5--5--------------------------------------|
G|---6--6---8--8---9--9----6--6----6--6---8--8--6-6-6-6/8--------------------|
D|---6--6---9--9---11-11---7--7----6--6---9--9--7-7-7-7/9--------------------|
A|---4--4---9--9---9--9----7--7----4--4---9--9--7-7-7-7/9--------------------|
E|----------7--7-----------5--5-----------7--7--5-5-5-5/7--------------------|

Post-Chorus
Guitar 1 
e|---------------------------------------------------------------------------|
B|---5--5----------10-10-----------5--5--------------------------------------|
G|---6--6---8--8---9--9----6--6----6--6---8--8--6-6-6-6/8--------------------|
D|---6--6---9--9---11-11---7--7----6--6---9--9--7-7-7-7/9--------------------|
A|---4--4---9--9---9--9----7--7----4--4---9--9--7-7-7-7/9--------------------|
E|----------7--7-----------5--5-----------7--7--5-5-5-5/7--------------------|
Guitar 2
e|-------4-------7-------------------4-4-4-7-7-7-----------------------------|
B|-----5---5---5---5-----7-------5---5-5-5-5-5-5-7--7--5--5-5----------------|
G|---6-------6---------8---8---6---6-6-6-6-6-6-6-8--8--6--6-6----------------|
D|-------------------9-------7-------------------9--9--7--7-7----------------|
A|---------------------------------------------------------------------------|
E|---------------------------------------------------------------------------|

e|-------4-------7-------------------4-4-4-7-7-7-----------------------------|
B|-----5---5---5---5-----7-------5---5-5-5-5-5-5-5/7--7--5--5-5--------------|
G|---6-------6---------8---8---6---6-6-6-6-6-6-6-6/8--8--6--6-6--------------|
D|-------------------9-------7-------------------7/9--9--7--7-7--------------|
A|---------------------------------------------------------------------------|
E|---------------------------------------------------------------------------|

(Verse)
(Pre-Chorus)
(Chorus)
(Post-Chorus)

Bridge A(x2)
e|---------------------------------0-0-0-0-0-0-0-0-0-0-0-0-0-0-0-0---------------------------------|
B|---------------------------------0-0-0-0-0-0-0-0-0-0-0-0-0-0-0-0-5-5-5-5-5-5-5-5-5-5-5-5-5-5-5-5-|
G|-9-9-9-9-9-9-9-9-9-9-9-9-9-9-9-9-4-4-4-4-4-4-4-4-4-4-4-4-4-4-4-4-6-6-6-6-6-6-6-6-6-6-6-6-6-6-6-6-|
D|-9-9-9-9-9-9-9-9-9-9-9-9-9-9-9-9-4-4-4-4-4-4-4-4-4-4-4-4-4-4-4-4-6-6-6-6-6-6-6-6-6-6-6-6-6-6-6-6-|
A|-7-7-7-7-7-7-7-7-7-7-7-7-7-7-7-7-2-2-2-2-2-2-2-2-2-2-2-2-2-2-2-2-4-4-4-4-4-4-4-4-4-4-4-4-4-4-4-4-|
E|-0-0-0-0-0-0-0-0-0-0-0-0-0-0-0-0-----------------------------------------------------------------|

e|---------------------------------------------------------------------------|
B|---------------------------------------------------------------------------|
G|-6-6-6-6-6-6-6-6-6-6-6-6-6-6-6-6-------------------------------------------|
D|-9-9-9-9-9-9-9-9-9-9-9-9-9-9-9-9-------------------------------------------|
A|-9-9-9-9-9-9-9-9-9-9-9-9-9-9-9-9-------------------------------------------|
E|-7-7-7-7-7-7-7-7-7-7-7-7-7-7-7-7-------------------------------------------|

Bridge B 
Guitar 1 (x2)
e|---------------------------------------------------------------------------|
B|---5--5----------10-10-----------5--5--------------------------------------|
G|---6--6---8--8---9--9----6--6----6--6---8--8--6-6-6-6/8--------------------|
D|---6--6---9--9---11-11---7--7----6--6---9--9--7-7-7-7/9--------------------|
A|---4--4---9--9---9--9----7--7----4--4---9--9--7-7-7-7/9--------------------|
E|----------7--7-----------5--5-----------7--7--5-5-5-5/7--------------------|

Guitar 2
e|----------------------------------4-4-7-4-------------------------------------------------|
B|--------9------7------5---------5------------------9------7------5------5-7-9-7-----------|
G|------9---9------8------6-----6------------------9---9------8------6-----------6--9/11----|
D|-9h11-------9------9------7-----------------9h11-------9------9------7-----------------9--|
A|------------------------------------------------------------------------------------------|
E|------------------------------------------------------------------------------------------|

(Chorus)
(Post-Chorus)

************************************

| /   slide up
| \   slide down
| h   hammer-on
| p   pull-off
| ~   vibrato
| +   harmonic
| x   Mute note
| b   Bend
| pb  Pre-bend
| br  Bend release
| pbr Pre-bend release
| brb Bend release bend

************************************
Добавлено: 26.04.2016
Другие материалы по этой песне:
  • Аккорды и текст

Страница создана 26.04.2016
http://primanota.ru/misc-unsigned-bands/leaving-song-energy-infinite-chords.htm
Привет, Гость.
Предлагаем пройти революционный курс по гитаре.
Подарок от PrimaNota.Ru, забирай!