PrimaNota.ru - самый крупный в мире бесплатный архив песенных текстов, аккордов, табулатур и нот


Misc Unsigned Bands - Laska - Walls - таба, видео

Регистрация Запомнить меня
Войти через:  Facebook Google Twitter Vk Yandex Mail.ru

Misc Unsigned Bands - Laska - Walls - таба, видео

Печатать
Просмотров: 49
Уроки эстрадного вокала в Санкт-Петербурге
-------------------------------------------------------------------------------
                             WALLS - Laska
-------------------------------------------------------------------------------
Tabbed by: Laska- Austin Rosom
E-mail:

Tuning: Standard

e|---------------------------------------------------------------------------|
B|--------------9----------------9--------------9--------------9-------------|
G|-----------8-----8-----------8---8----------8---8---------8-----8----------|
D|--------9-----------9-----9--------------9--------9----9-------------------|
A|-----7-----------------7--------------7-------------7----------------------|
E|---------------------------------------------------------------------------|

e|----------------5--------------5------------5--------------5--------------|
B|-----------7p5------------7p5----------7p5------------7p5-----------------|
G|--------------------------------------------------------------------------|
D|--------------------------------------------------------------------------|
A|--------------------------------------------------------------------------|
E|-----5--5------------5--5---------5--5----------5--5----------------------|     x2

e|--------------------------------------5--5-----------------------------------|
B|-------9---9--------------------------7--7-----------------------------------|
G|-------8---8--slide----x2---------5--5--slide---x2---------------------------|
D|-------9---9--------------------------7--7-----------------------------------|
A|----7--7---7--------------------------5--5-----------------------------------|
E|-----------------------------------5--5--5-----------------------------------|

e|--------------------7---9h7-------------------------5-------------------------|
B|----------9----7h9--------------------------7p5h7-----------------------------|
G|----------8-------------------x2------------------------6---------------------|
D|----------9----------------------------------------------------x2-------------|
A|---7---7--7-------------------------------------------------------------------|
E|-------------------------------------5--5-------------------------------------|

SPECIAL LICK
e|-----------------0--7-h-9-p-7-p-0---------------------------------------------|
B|------------7s9-------------------9s7-----------------------------------------|
G|------------------------------------------------------------------------------|   
D|-----------------------------------------x2-----------------------------------|
A|------------------------------------------------------------------------------|
E|-----5--5---------------------------------------------------------------------|

e|----------------------2-2------4--4----4----------------------------------------|
B|---------9---9--------4-4------6--6----4----------------------------------------|
G|---------8---8--------2-2------4--4----5---build swell--------------------------|
D|---------9---9--------4-4------6--6----6----------------------------------------|
A|------7--7---7-----2--2-2---4--4--4----6----------------------------------------|
E|---------------------------------------4----------------------------------------|

e|---------------------2-2----2----4------------------------------------------------------|
B|---------9--9--------4-4----4----6------------------------------------------------------|
G|---------8--8--------2-2----2----4--last chord repeats after ride diddle a few times----|
D|---------9--9--------4-4----4----6------------------------------------------------------|
A|------7--7--7-----2--2-2----2----4------------------------------------------------------|
E|----------------------------------------------------------------------------------------|

CHORUS
e|------------------------------------------4--4-----12-12-12--9----------------------|
B|-----9--9----9-9-9-----9---12slidedown----5--5------------------12--9---------------|
G|-----8--8-----------11--------------------6--6--------------------------11 bend-----|
D|-----9--9---------------------------------6--6--------------------------------------|   
A|-----7--7---------------------------------4--4--------------------------------------|
E|------------------------------------------------------------------------------------|


Chorus line repeats three time and the last time instead of the 11 bend do a hard e bend (9b)

e|------------------------------------------------------------------11-----------------------|
B|-----------7-------7----7----------9-------9----9-----------12----------12-----------------|
G|------s9-9---9--9----9------s11-11---11-11---11------s13-13----13----13----13--------------|
D|-------------------------------------------------------------------------------------------|
A|-------------------------------------------------------------------------------------------|
E|-------------------------------------------------------------------------------------------|


e|-----------------11-----14-------------------------------------------------|
B|-----------12--------------------------------------------------------------|
G|-----13-13----13----13----13----------------------------------------------- x2
D|---------------------------------------------------------------------------|
A|---------------------------------------------------------------------------|
E|---------------------------------------------------------------------------|

HEAVIER GAIN
e|---------------------------------------------------------------------------|
B|---------------------------------------------------------------------------|
G|--------9t--11t---13t--16t--------9t--11t---13t--16t-----------------------| 
D|----------------------------------7t--9t---11t---14t-----------------------|
A|---------------------------------------------------------------------------|
E|---------------------------------------------------------------------------|

e|---------------------------------------------------------------------------|
B|---------------------------------------------------------------------------|
G|---------16t-14t--13t--11t-9t----------------------------------------------|
D|---------------------------------------------------------------------------|
A|---------------------------------------------------------------------------|
E|---------------------------------------------------------------------------|


************************************

| /   slide up
| \   slide down
| h   hammer-on
| p   pull-off
| ~   vibrato
| +   harmonic
| x   Mute note
| b   Bend
| pb  Pre-bend
| br  Bend release
| pbr Pre-bend release
| brb Bend release bend

************************************
Добавлено: 18.04.2016
Другие материалы по этой песне:
  • Аккорды и текст

Страница создана 18.04.2016
http://primanota.ru/misc-unsigned-bands/laska-walls-chords.htm
Привет, Гость.
Предлагаем пройти революционный курс по гитаре.
Подарок от PrimaNota.Ru, забирай!