PrimaNota.ru - самый крупный в мире бесплатный архив песенных текстов, аккордов, табулатур и нот


Misc Unsigned Bands - Laska - Ok If Were Alright - таба, видео

Регистрация Запомнить меня
Войти через:  Facebook Google Twitter Vk Yandex Mail.ru

Misc Unsigned Bands - Laska - Ok If Were Alright - таба, видео

Печатать
Просмотров: 90
Уроки эстрадного вокала в Санкт-Петербурге
-------------------------------------------------------------------------------
                             OK,If We're Alright - Laska
-------------------------------------------------------------------------------
Tabbed by: Laska - Austin Rosom
E-mail:

Tuning: Standard


INTRO
e|---------------------------------------------------------------13--15--13--------|
B|---------------------------------------------------------------------------------|
G|---15--15--15-15-15-15-15-15--15--15-15-15-15-15-15--15-15-15--------------------|
D|---15--15---------------------15--15-15--------------15-15-----------------------|
A|---13--13---------------------13--13-13--------------13-13-----------------------|
E|---------------------------------------------------------------------------------|

VERSE
e|-------13-15-13-------13-15-13-------------------13-15-13---------------------------------------|
B|------------------------------15-13-----------------------15-15-16-15--11--11-------------------|
G|----15----------15-15---------------15-15-15-15--------------------------12--10---15-15-15------|
D|----15----------15-15---------------15-15-15-15-----------------------------------15-15-15------|
A|----13----------13-13---------------13-13-13-13-----------------------------------13-13-13------|
E|------------------------------------------------------------------------------------------------|

e|----13-15--13-------13-15-13-----------------13-15-13-------------------------------------|
B|----------------------------15-13--------------------15-15-16-15-15-16-15-11--11----------|
G|--------------15-15---------------15-15-15-15-------------------------------12--10--------|
D|--------------15-15---------------15-15-15-15---------------------------------------------|
A|--------------13-13---------------13-13-13-13---------------------------------------------|
E|------------------------------------------------------------------------------------------|

e|---------------------------13--15-13---------------------------------------|
B|---------------------------------------------------------------------------|
G|-----15-15--15------15-15--------------------------------------------------|
D|-----15-15--15------15-15--------------------------------------------------|
A|-----13-13--13------13-13--------------------------------------------------|
E|---------------------------------------------------------------------------|

PRECHORUS
e|--------------------------------------------------------------------------|
B|--------------------------------------------------------------------------|
G|---8-----5--3---8----5-3--------------------------------------------------|
D|---8--5--5--3---8-5--5-3--------------------------------------------------|
A|---6--5--3--1---6-5--3-1--------------------------------------------------|
E|------3-----------3-------------------------------------------------------|

CHORUS

e|----13-15-13--------8-10-8---------13-15-13-15s18---8--10s13---------------------|
B|------------15-13----------11-8--------------------------------------------------|
G|--15--------------8-------------15----------------8------------------------------|
D|--15--------------8-------------15----------------8------------------------------|
A|--13--------------6-------------13----------------6------------------------------|
E|---------------------------------------------------------------------------------|

BRIDGE

e|---------------------------------------------------------------------------|
B|---------------------------------------------------------------------------|
G|---7-7--8-10-12---7-7-8-10---7-7-8-10-12----7-----8---10-------------------|
D|---8-8--8-10-12---8-8-8-10---8-8-8-10-12----8-----8---10-------------------|
A|---8-8--6-8--10---8-8-6-8----8-8-6-8--10----8-----6---8--------------------|
E|---6-6------------6-6--------6-6------------6------------------------------|

OUTRO:  (Alternate between any A# and D# and make it nice and heavy)

e|---------------------------------------------------------------------------|
B|---------------------------------------------------------------------------|
G|------7--7--7---8----------------------------------------------------------|
D|------8--8--8---8---REPEAT-------------------------------------------------|
A|------8--8--8---6----------------------------------------------------------|
E|------6--6--6--------------------------------------------------------------|

ENDING IS SIMILAR TO BEGINNING JUST TAKE A LISTEN

e|-----------------------------------------------|
B|-----------------------------------------------|
G|---15--15--15-15-15-15-15-15--15--15-----------|
D|---15--15---------------------15--15-----------|
A|---13--13---------------------13--13-----------|
E|-----------------------------------------------|

************************************

| /   slide up
| \   slide down
| h   hammer-on
| p   pull-off
| ~   vibrato
| +   harmonic


************************************

Добавлено: 22.04.2016
Другие материалы по этой песне:
  • Аккорды и текст

Страница создана 22.04.2016
http://primanota.ru/misc-unsigned-bands/laska-ok-if-were-alright-chords.htm
Привет, Гость.
Предлагаем пройти революционный курс по гитаре.
Подарок от PrimaNota.Ru, забирай!