PrimaNota.ru - самый крупный в мире бесплатный архив песенных текстов, аккордов, табулатур и нот


Misc Unsigned Bands - Laska - Its Morning I - таба, видео

Регистрация Запомнить меня
Войти через:  Facebook Google Twitter Vk Yandex Mail.ru

Misc Unsigned Bands - Laska - Its Morning I - таба, видео

Печатать
Просмотров: 95
Уроки эстрадного вокала в Санкт-Петербурге
-------------------------------------------------------------------------------
                             IT'S MORNING - Laska
-------------------------------------------------------------------------------
Tabbed by: Laska - Austin Rosom
E-mail:

Tuning: Standard

Song begins with a swell using a delay mod expression pedal.  Use the Following Chord

e|-----0----------------------------------------------------------------------|
B|-----0----------------------------------------------------------------------|
G|-----0----------------------------------------------------------------------|
D|-----5----------------------------------------------------------------------|
A|-----7----------------------------------------------------------------------|
E|-----7----------------------------------------------------------------------|

Intro:

e|---------------------------------------------------------------------------|
B|---------------------------------------------------------------------------|
G|--------------------------5-7-7s9------------------------------------------|
D|-----7p5--7------7p5--7-7---------5h7-7p5----------------------------------|
A|------------------------------------------5--------------------------------|
E|---------------------------------------------------------------------------|

e|---------------------------------------------------------------------------|
B|---------------------------------------------------------------------------|
G|---------------5-5-5-7-7-9-12----------------------------------------------|
D|-----7-7-7-7-7-------------------------------------------------------------|
A|---------------------------------------------------------------------------|
E|---------------------------------------------------------------------------|    x2

Main Riff: 

e|---------10--------10---------5--------5-----------------------------------------|
B|---------10--------10---------5--------5-----------------------------------------|
G|---------10--------10---------5--------5-----------------------------------------|
D|---12-12-----10h12--------5h7----5-5h7-------------------------------------------|
A|---------------------------------------------------------------------------------|
E|---------------------------------------------------------------------------------|

Variations of the Above riff will work just fine.  It changes throughout the recorded version.  Just keep
the timing and chords the same.


************************************

| /   slide up
| \   slide down
| h   hammer-on
| p   pull-off
| ~   vibrato
| +   harmonic
| x   Mute note
| b   Bend
| pb  Pre-bend
| br  Bend release
| pbr Pre-bend release
| brb Bend release bend

************************************
Добавлено: 22.04.2016
Другие материалы по этой песне:
  • Аккорды и текст

Страница создана 22.04.2016
http://primanota.ru/misc-unsigned-bands/laska-its-morning-i-chords.htm
Привет, Гость.
Предлагаем пройти революционный курс по гитаре.
Подарок от PrimaNota.Ru, забирай!