PrimaNota.ru - самый крупный в мире бесплатный архив песенных текстов, аккордов, табулатур и нот


Misc Unsigned Bands - Laska - Headspace - таба

Регистрация Запомнить меня
Войти через:  Facebook Google Twitter Vk Yandex Mail.ru

Misc Unsigned Bands - Laska - Headspace - таба

Печатать
Просмотров: 57
-------------------------------------------------------------------------------
                             HEADSPACE - Laska
-------------------------------------------------------------------------------
Tabbed by: Laska - Austin
E-mail:

Tuning: Standard CAPO 5 


INTRO: 

e|-----------------------------0----------------------------------------------|
B|-----------------------------0----------------------------------------------|
G|-----------5s6p0------5s6p0--0----------------------------------------------|
D|--------5p0--------5p0-------2----------------------------------------------|
A|-----5s7--------5s7----------3----------------------------------------------|
E|-----------------------------0----------------------------------------------|x4

Freeze last chord with pedal and slowly decrescendo.

Verse
First line begins in back ground
e|---------------------------------------------------------------------------|
B|---------------------------------------------------------------------------|
G|---------7--2------------4-12-10-2-----------------------------------------|
D|-------7-------------7-7-----------2--x2-----------------------------------|
A|-----5-------------5-------------------------------------------------------|
E|---------------------------------------------------------------------------|

e|----3------0--0---2--2-0---------------------------------------------------------|
B|----0------0--0---3--3-1---------------------------------------------------------|
G|----0---0--0--0---2--4-0---------------------------------------------------------|
D|----0---0--2--2---0--4-2---------------------------------------------------------|
A|----2---0--2--2------2-3---------------------------------------------------------|
E|----3---3--0--0------2-0---------------------------------------------------------|

Verse 2:
e|-------------------------------------------------------------------------------------------|
B|-------------------------------------------------------------------------------------------|
G|-------------0-2-4-7-5-4------------0-2-4-2h4p2h4------------0-2-4-7-5-4-2h4--0-2h4-7------|
D|--------0h5h7-----------------0h5h7--------------------0h5h7-----------------2-------------|
A|---0h5h7-----------------0h5h7--------------------0h5h7------------------------------------|
E|-------------------------------------------------------------------------------------------|  x2


Chorus:
e|----0--0-----0-------2------3-3-3----0---------0-----2----2-0-------------------------|
B|----0--0-----0-------3------0-0-0----0---------0-----3----3-1-------------------------|
G|----0--7-----0-------2------0-0-0-0--0---------0-----2----4-0-------------------------|
D|----2--5-x4--2--x4---0--x4--0-0-0-0--2--x4-----2-x9--0-x3-4-2-------------------------|
A|----3--7-----2--------------2-2-2-0--2---------2----------2-3-------------------------|
E|----0--0-----0--------------3-3-3-3--0---------0----------2-0-------------------------|

Lick in Verse 3:
e|---------------------------------------------------------------------------|
B|---------------------------------------------------------------------------|
G|-----------------------0h2h4---4p2p0h2---7---------------------------------|
D|----------0h5h7--0h2h4-----------------------------------------------------|
A|-----0h5h7-----------------------------------------------------------------|
E|---------------------------------------------------------------------------|

ENDING:

Very Similar to the end of the chorus. Just repeated.



************************************

| /   slide up
| \   slide down
| h   hammer-on
| p   pull-off
| ~   vibrato
| +   harmonic
| x   Mute note
| b   Bend
| pb  Pre-bend
| br  Bend release
| pbr Pre-bend release
| brb Bend release bend

************************************
Добавлено: 22.04.2016
Другие материалы по этой песне:
  • Аккорды и текст

Страница создана 22.04.2016
http://primanota.ru/misc-unsigned-bands/laska-headspace-chords.htm
Привет, Гость.
Предлагаем пройти революционный курс по гитаре.
Подарок от PrimaNota.Ru, забирай!