PrimaNota.ru - самый крупный в мире бесплатный архив песенных текстов, аккордов, табулатур и нот


Misc Unsigned Bands - Kagerou Project - Marys Fictional World - таба

Регистрация Запомнить меня
Войти через:  Facebook Google Twitter Vk Yandex Mail.ru

Misc Unsigned Bands - Kagerou Project - Marys Fictional World - таба

Печатать
Просмотров: 114
-------------------------------------------------------------------------------
            Kagerou Project - Mary no Kakuu Sekai (Mary's Fictional World)
-------------------------------------------------------------------------------
Tabbed by:SupaCoolNinja


Tuning: Standard

e|---3----3----3---------3----3----2h3------3----3---------------------------|
B|---3----3----3---------3----3-------------3----3--------------3------------|
G|---0----0----0---------0----2-------------0----0--------------2------------|
D|--2---------------2---------0------------2----------0----2----0-------0----|
A|-3------2-------------------------------3------2---------------------0-0---|
E|-------------------------------------------------------------------3-------|

e|-----------------------------------0---------------------------------------|
B|---------0---------0-3-0---0---0-3-0--3-0---0--------0---------------------|
G|-------0-0-2----0-2-----2----------0-0----2--2-0---2---2-0-0---------------|
D|---0h2------------2------------------------------2-0-------0---------------|
A|-3-------2--------0----------------3------2--------------------------------|
E|---------------------------3-------------------------------3---------------|

e|-----------------------------------0---------------------------------------|
B|---------0---------0-3-0---0---0-3-0--3-0---0--------0---------------------|
G|-------0-0-2----0-2-----2----------0-0----2--2-0---2---2-0-0---------------|
D|---0h2------------2------------------------------2-0-------0---------------|
A|-3-------2--------0----------------3------2--------------------------------|
E|---------------------------3-------------------------------3---------------|

e|-0-------------------------------------------------------------------------|
B|-0----3-0-3-----0-3----0-------------0------0-3-0--0-----------------------|
G|-0-------------2-----0---2-0-----0-2----0-2------2-0--0--------------------|
D|-2------------------0----------2---2--2---0----------0---------------------|
A|-3----------------2--------------------------------------------------------|
E|---------------------------------------------------3----2-1----------------|

e|-----0-3---2p0---------0------------------------------------------0--------|
B|-0-3-----0----3----0-3-0-3-0-3-3---0-------0-----0----4-3--------------+7+-|
G|--------0-----2--------0-------------2-0-2---0-2--2-0-3----------7--7--+7+-|
D|-------2------0--------2---------0-------2--2---------5--5/7-7--7--7-------|
A|-----------------------3-------2---------------2------3------5-------------|
E|---------------------------------------------------------------------------|

e|-----------------0---0-3-3/5/3----0--0-------------------------------------|
B|-------------0-3---3-0-------1-----3-0---3-0---0-----0---3-0---------------|
G|-----0---0-2-2-------0-------2-------0-0-----2--2-0--0-2-----2-------------|
D|-0-2-0-0-----0-------2-------0---------------------2-2---------------------|
A|-------------------------------------3-------2-------0---------------------|
E|-----3-------2-------------------------------------------------------------|

e|-----------------0---0-3-3/5/3--0---0--------------------------------------|
B|-------------0-3---3-0-------1----3-0-3-0-3-0---------0--------------------|
G|-----0---0-2-2-------0-------2------0-------0-2-0---0-----0--0-------------|
D|-0h2-0-0-----0-------2-------0--------------------0-2---5----0-------------|
A|------------------------------------3-------2-------3---5------------------|
E|-----3-------2-----------------------------------------------3-------------|

e|-3/5-3-5-3-0-3-0-----------------------------------------------------------|
B|-----------------3-0------0------------------------------------------------|
G|---------------0----2-0-------0-0------------------------------------------|
D|------------------------2---5---0------------------------------------------|
A|-------3-------3--------3---5---2------------------------------------------|
E|--------------------------------3------------------------------------------|

************************************

| /   slide up
| \   slide down
| h   hammer-on
| p   pull-off
| ~   vibrato
| +   harmonic
| x   Mute note
| b   Bend
| pb  Pre-bend
| br  Bend release
| pbr Pre-bend release
| brb Bend release bend

************************************
Добавлено: 17.10.2015
Другие материалы по этой песне:
  • Аккорды и текст

Страница создана 17.10.2015
http://primanota.ru/misc-unsigned-bands/kagerou-project-marys-fictional-world-chords.htm
Привет, Гость.
Предлагаем пройти революционный курс по гитаре.
Подарок от PrimaNota.Ru, забирай!