PrimaNota.ru - самый крупный в мире бесплатный архив песенных текстов, аккордов, табулатур и нот


Misc Unsigned Bands - Laurena - All The Girls Love You - таба, видео

Регистрация Запомнить меня
Войти через:  Facebook Google Twitter Vk Yandex Mail.ru

Misc Unsigned Bands - Laurena - All The Girls Love You - таба, видео

Печатать
Просмотров: 135
Уроки эстрадного вокала в Санкт-Петербурге
So I just tabbed the whole thing. I wasn't really sure how to do it, but I will probably be posting a more 
detailed (with rhythms and lyrics in the right place and stuff) version on Noteflight.

Here is the video: https://www.youtube.com/watch?v=DJISM1cmzhU


Intro:
    C
e|--------------------------------------------------
B|--------------------------------------------------
C|------2-----2-----2-----2-----2-----2-----2-----2-
D|--------0-----------0-----------0-----------0-----
A|--3-----------3-----------3-----------3-----------
E|--------------------------------------------------

  C
  All the girls are in love with you
--------------------------------------------------
--------------------------------------------------
------2-----2-----2-----2-----2-----2-----2-----2-
--------0-----------0-----------0-----------0-----
--3-----------3-----------3-----------3-----------
--------------------------------------------------

 Every girl that I ever knew      
--------------------------------------------------
--------------------------------------------------
------2-----2-----2-----2-----2-----2-----2-----2-
--------0-----------0-----------0-----------0-----
--3-----------3-----------3-----------3-----------
--------------------------------------------------

  F
  But you were a sad and a lonely guy, 
--------------------------------------------------
------1-----1-----1-----1-----1-----1-----1-----1-
--------2-----------2-----------2-----------2-----
--3-----------3-----------3------------3----------
--------------------------------------------------
--------------------------------------------------
 
  C
  Still you never considered You and I
--------------------------------------------------
--------------------------------------------------
------2-----2-----2-----2-----2-----2-----2-----2-
--------0-----------0-----------0-----------0-----
--3-----------3-----------3-----------3-----------
--------------------------------------------------

  G
--------------------------------------------------
--------------------------------------------------
------0-----0-----0-----0-----0-----0-----0-----0-
--------0-----------0-----------0-----------0-----
--2-----------2-----------2-----------2-----------
--------------------------------------------------

  C
--------------------------------------------------
--------------------------------------------------
------2-----2-----2-----2-----2-----2-----2-----2-
--------0-----------0-----------0-----------0-----
--3-----------3-----------3-----------3-----------
--------------------------------------------------

  All the guys that I ever met
--------------------------------------------------
--------------------------------------------------
------2-----2-----2-----2-----2-----2-----2-----2-
--------0-----------0-----------0-----------0-----
--3-----------3-----------3-----------3-----------
--------------------------------------------------

  Said I was cute, but pretty hasn't come 
--------------------------------------------------
--------------------------------------------------
------2-----2-----2-----2-----2-----2-----2-----2-
--------0-----------0-----------0-----------0-----
--3-----------3-----------3-----------3-----------
--------------------------------------------------

  F
  up yet.
--------------------------------------------------
------1-----1-----1-----1-----1-----1-----1-----1-
--------2-----------2-----------2-----------2-----
--3-----------3-----------3------------3----------
--------------------------------------------------
--------------------------------------------------

  C
--------------------------------------------------
--------------------------------------------------
------2-----2-----2-----2-----2-----2-----2-----2-
--------0-----------0-----------0-----------0-----
--3-----------3-----------3-----------3-----------
--------------------------------------------------

  Maybe there was a guy or two
--------------------------------------------------
--------------------------------------------------
------2-----2-----2-----2-----2-----2-----2-----2-
--------0-----------0-----------0-----------0-----
--3-----------3-----------3-----------3-----------
--------------------------------------------------

  I think I loved them,but I'm not sure if I
--------------------------------------------------
--------------------------------------------------
------2-----2-----2-----2-----2-----2-----2-----2-
--------0-----------0-----------0-----------0-----
--3-----------3-----------3-----------3-----------
--------------------------------------------------

  F
  love you,                               
--------------------------------------------------
------1-----1-----1-----1-----1-----1-----1-----1-
--------2-----------2-----------2-----------2-----
--3-----------3-----------3------------3----------
--------------------------------------------------
--------------------------------------------------

        C
  But I like you.
--------------------------------------------------
--------------------------------------------------
------2-----2-----2-----2-----2-----2-----2-----2-
--------0-----------0-----------0-----------0-----
--3-----------3-----------3-----------3-----------
--------------------------------------------------

  G
--------------------------------------------------
--------------------------------------------------
------0-----0-----0-----0-----0-----0-----0-----0-
--------0-----------0-----------0-----------0-----
--2-----------2-----------2-----------2-----------
--------------------------------------------------

  C
--------------------------------------------------
--------------------------------------------------
------2-----2-----2-----2-----2-----2-----2-----2-
--------0-----------0-----------0-----------0-----
--3-----------3-----------3-----------3-----------
--------------------------------------------------

  Every girl that I ever knew
--------------------------------------------------
--------------------------------------------------
------2-----2-----2-----2-----2-----2-----2-----2-
--------0-----------0-----------0-----------0-----
--3-----------3-----------3-----------3-----------
--------------------------------------------------

  Said that I should be in love with you
--------------------------------------------------
--------------------------------------------------
------2-----2-----2-----2-----2-----2-----2-----2-
--------0-----------0-----------0-----------0-----
--3-----------3-----------3-----------3-----------
--------------------------------------------------

      F
  But if I don't know who I'm singing to 
--------------------------------------------------
------1-----1-----1-----1-----1-----1-----1-----1-
--------2-----------2-----------2-----------2-----
--3-----------3-----------3------------3----------
--------------------------------------------------
--------------------------------------------------

  C
  Would that bother you or you?
--------------------------------------------------
--------------------------------------------------
------2-----2-----2-----2-----2-----2-----2-----2-
--------0-----------0-----------0-----------0-----
--3-----------3-----------3-----------3-----------
--------------------------------------------------

  G
--------------------------------------------------
--------------------------------------------------
------0-----0-----0-----0-----0-----0-----0-----0-
--------0-----------0-----------0-----------0-----
--2-----------2-----------2-----------2-----------
--------------------------------------------------

  C
--------------------------------------------------
--------------------------------------------------
------2-----2-----2-----2-----2-----2-----2-----2-
--------0-----------0-----------0-----------0-----
--3-----------3-----------3-----------3-----------
--------------------------------------------------

  E
  Sometimes I think about breaking down
--------------------------------------------------
--------------------------------------------------
------1-----1-----1-----1-----1-----1-----1-----1-
--------2-----------2-----------2-----------2-----
--2-----------2-----------2-----------2-----------
--------------------------------------------------

  Am
  Breaking the plates and smashing the glasses
--------------------------------------------------
--------------------------------------------------
------2-----2-----2-----2-----2-----2-----2-----2-
--------2-----------2-----------2-----------2-----
--0-----------0-----------0-----------0-----------
--------------------------------------------------

  Dm
  But then I think about the consequences
--------------------------------------------------
------2-----2-----2-----2-----2-----2-----2-----2-
--------3-----------3-----------3-----------3-----
--0-----------0-----------0------------0----------
--------------------------------------------------
--------------------------------------------------

  G
  So I calm down and I follow the masses
--------------------------------------------------
--------------------------------------------------
------0-----0-----0-----0-----0-----0-----0-----0-
--------0-----------0-----------0-----------0-----
--2-----------2-----------2-----------2-----------
--------------------------------------------------

  E
  Sometimes I scream at the top of my lungs
--------------------------------------------------
--------------------------------------------------
------1-----1-----1-----1-----1-----1-----1-----1-
--------2-----------2-----------2-----------2-----
--2-----------2-----------2-----------2-----------
--------------------------------------------------

  Am
  Don't use a pillow; that would ruin the fun
--------------------------------------------------
--------------------------------------------------
------2-----2-----2-----2-----2-----2-----2-----2-
--------2-----------2-----------2-----------2-----
--0-----------0-----------0-----------0-----------
--------------------------------------------------

  Dm
  I hope the neighbors can't hear the yells
--------------------------------------------------
------2-----2-----2-----2-----2-----2-----2-----2-
--------3-----------3-----------3-----------3-----
--0-----------0-----------0------------0----------
--------------------------------------------------
--------------------------------------------------

  G
  They'd call the cops and the ambulance as well
--------------------------------------------------
--------------------------------------------------
------0-----0-----0-----0-----0-----0-----0-----0-
--------0-----------0-----------0-----------0-----
--2-----------2-----------2-----------2-----------
--------------------------------------------------

  C
--------------------------------------------------
--------------------------------------------------
------2-----2-----2-----2-----2-----2-----2-----2-
--------0-----------0-----------0-----------0-----
--3-----------3-----------3-----------3-----------
--------------------------------------------------


  If I had a wishes three
--------------------------------------------------
--------------------------------------------------
------2-----2-----2-----2-----2-----2-----2-----2-
--------0-----------0-----------0-----------0-----
--3-----------3-----------3-----------3-----------
--------------------------------------------------

  I'd wish that you'd stop talking to me
--------------------------------------------------
--------------------------------------------------
------2-----2-----2-----2-----2-----2-----2-----2-
--------0-----------0-----------0-----------0-----
--3-----------3-----------3-----------3-----------
--------------------------------------------------

  F
  I hate the way you make me feel
--------------------------------------------------
------1-----1-----1-----1-----1-----1-----1-----1-
--------2-----------2-----------2-----------2-----
--3-----------3-----------3------------3----------
--------------------------------------------------
--------------------------------------------------

  My uninterested is palpable and real
--------------------------------------------------
--------------------------------------------------
------2-----2-----2-----2-----2-----2-----2-----2-
--------0-----------0-----------0-----------0-----
--3-----------3-----------3-----------3-----------
--------------------------------------------------

  G
--------------------------------------------------
--------------------------------------------------
------0-----0-----0-----0-----0-----0-----0-----0-
--------0-----------0-----------0-----------0-----
--2-----------2-----------2-----------2-----------
--------------------------------------------------

  C
  If I had a wishes two
--------------------------------------------------
--------------------------------------------------
------2-----2-----2-----2-----2-----2-----2-----2-
--------0-----------0-----------0-----------0-----
--3-----------3-----------3-----------3-----------
--------------------------------------------------

  I'd wish I would fall in love with you
--------------------------------------------------
--------------------------------------------------
------2-----2-----2-----2-----2-----2-----2-----2-
--------0-----------0-----------0-----------0-----
--3-----------3-----------3-----------3-----------
--------------------------------------------------

  F
 'Cause right now I don't have a clue
--------------------------------------------------
------1-----1-----1-----1-----1-----1-----1-----1-
--------2-----------2-----------2-----------2-----
--3-----------3-----------3------------3----------
--------------------------------------------------
--------------------------------------------------

  C
  Uncertainty is making me so blue
--------------------------------------------------
--------------------------------------------------
------2-----2-----2-----2-----2-----2-----2-----2-
--------0-----------0-----------0-----------0-----
--3-----------3-----------3-----------3-----------
--------------------------------------------------

  G
--------------------------------------------------
--------------------------------------------------
------0-----0-----0-----0-----0-----0-----0-----0-
--------0-----------0-----------0-----------0-----
--2-----------2-----------2-----------2-----------
--------------------------------------------------

  C
--------------------------------------------------
--------------------------------------------------
------2-----2-----2-----2-----2-----2-----2-----2-
--------0-----------0-----------0-----------0-----
--3-----------3-----------3-----------3-----------
--------------------------------------------------

  E
  Yes I know that I'm a drama queen
--------------------------------------------------
--------------------------------------------------
------1-----1-----1-----1-----1-----1-----1-----1-
--------2-----------2-----------2-----------2-----
--2-----------2-----------2-----------2-----------
--------------------------------------------------

  Am
  I'm kind of a b**** and kinda mean
--------------------------------------------------
--------------------------------------------------
------2-----2-----2-----2-----2-----2-----2-----2-
--------2-----------2-----------2-----------2-----
--0-----------0-----------0-----------0-----------
--------------------------------------------------

  Dm
  I'm down to earth, but kind of slow
--------------------------------------------------
------2-----2-----2-----2-----2-----2-----2-----2-
--------3-----------3-----------3-----------3-----
--0-----------0-----------0------------0----------
--------------------------------------------------
--------------------------------------------------

  G
  Still you're not math class so I should know
--------------------------------------------------
--------------------------------------------------
------0-----0-----0-----0-----0-----0-----0-----0-
--------0-----------0-----------0-----------0-----
--2-----------2-----------2-----------2-----------
--------------------------------------------------

  E
  Sometimes I think about breaking down
--------------------------------------------------
--------------------------------------------------
------1-----1-----1-----1-----1-----1-----1-----1-
--------2-----------2-----------2-----------2-----
--2-----------2-----------2-----------2-----------
--------------------------------------------------

  Am
  Breaking the plates and smashing the glasses
--------------------------------------------------
--------------------------------------------------
------2-----2-----2-----2-----2-----2-----2-----2-
--------2-----------2-----------2-----------2-----
--0-----------0-----------0-----------0-----------
--------------------------------------------------

  Dm
  But then I think about the consequences
--------------------------------------------------
------2-----2-----2-----2-----2-----2-----2-----2-
--------3-----------3-----------3-----------3-----
--0-----------0-----------0------------0----------
--------------------------------------------------
--------------------------------------------------

  G
  So I calm down and I follow the masses
--------------------------------------------------
--------------------------------------------------
------0-----0-----0-----0-----0-----0-----0-----0-
--------0-----------0-----------0-----------0-----
--2-----------2-----------2-----------2-----------
--------------------------------------------------

  C
  If I had just one wish right
--------------------------------------------------
--------------------------------------------------
------2-----2-----2-----2-----2-----2-----2-----2-
--------0-----------0-----------0-----------0-----
--3-----------3-----------3-----------3-----------
--------------------------------------------------

  I'd wish for you to hold me tight
--------------------------------------------------
--------------------------------------------------
------2-----2-----2-----2-----2-----2-----2-----2-
--------0-----------0-----------0-----------0-----
--3-----------3-----------3-----------3-----------
--------------------------------------------------

Outro:
  F
--------------------------------------------------
------1-----1-----1-----1-----1-----1-----1-----1-
--------2-----------2-----------2-----------2-----
--3-----------3-----------3------------3----------
--------------------------------------------------
--------------------------------------------------

  C
--------------------------------------------------
--------------------------------------------------
------2-----2-----2-----2-----2-----2-----2-----2-
--------0-----------0-----------0-----------0-----
--3-----------3-----------3-----------3-----------
--------------------------------------------------

  G                                                C
-----------------------------------------------------
-----------------------------------------------------
------0-----0-----0-----0-----0-----0-----0-----0----
--------0-----------0-----------0-----------0--------
--2-----------2-----------2-----------2------------3-
-----------------------------------------------------
Добавлено: 17.10.2015
Другие материалы по этой песне:
  • Аккорды и текст

Страница создана 17.10.2015
http://primanota.ru/misc-unsigned-bands/laurena-all-girls-love-you-chords.htm
Привет, Гость.
Предлагаем пройти революционный курс по гитаре.
Подарок от PrimaNota.Ru, забирай!