PrimaNota.ru - самый крупный в мире бесплатный архив песенных текстов, аккордов, табулатур и нот


Misc Unsigned Bands - Lights Out - I Cant Do This On My Own - таба, видео

Регистрация Запомнить меня
Войти через:  Facebook Google Twitter Vk Yandex Mail.ru

Misc Unsigned Bands - Lights Out - I Cant Do This On My Own - таба, видео

Печатать
Просмотров: 127
Уроки эстрадного вокала в Санкт-Петербурге
INTRO/SOFT SECTION BACKING

------------------0---------------------------------|
-------0-1h-0p-------------0-1-0---3------1----0-1h-|
-----2---------2---------2-------2----2------2------|
---2-------------------2----------------2-----------|
-0-------------------0------------------------------|
----------------------------------------------------|
----------------------------------------------------|

SOFT SECTION LEAD

-5----8----7------5---8---7---10-------------------|
---------------------------------------------------|
---------------------------------------------------|
---------------------------------------------------|
---------------------------------------------------|
---------------------------------------------------|
---------------------------------------------------|

HEAVY PART GUITAR ONE ALL TREMOLO PICKED, REFER TO TRACK

-----------------------------------------------------|
-----------------------------------------------------|
-----------------------------------------------------|
-----------------------------------------------------|
-----------------------------------------------------|
----5-8-7------5-8-10-8-7-8----5-8-7----5-8-10-8-7-8-|
0-----------0----------------7--------5--------------|


HEAVY PART END HARMONY ALL TREMOLO PICKED, REFER TO TRACK


----------------------------------------------------------------------|
----------------------------------------------------------------------|
----------------------------------------------------------------------|
----------------------------------------------------------------------|
----------------------------------------------------------------------|
----8-12-10------8-12-13-12-10-12-----8-12-10-------8-12-13-12-10-12--|
0-----------0----------------------7------------5---------------------|
Добавлено: 01.10.2015
Другие материалы по этой песне:
  • Аккорды и текст

Страница создана 01.10.2015
http://primanota.ru/misc-unsigned-bands/lights-out-i-cant-do-this-on-my-own-chords.htm
Привет, Гость.
Предлагаем пройти революционный курс по гитаре.
Подарок от PrimaNota.Ru, забирай!