PrimaNota.ru - самый крупный в мире бесплатный архив песенных текстов, аккордов, табулатур и нот


Misc Unsigned Bands - Kyu Sakamoto - Sukiyaki - таба

Регистрация Запомнить меня
Войти через:  Facebook Google Twitter Vk Yandex Mail.ru

Misc Unsigned Bands - Kyu Sakamoto - Sukiyaki - таба

Печатать
Просмотров: 107
     S E  S S S S S S E  S S S S S    S E  S E  S  S  E   S  S  S  S S S  
E||--3-3--5-7-3-0---3-3--5-7-3-0---|--3-3--5-7--7-10-12--12-10-12-10-7-5-|
B||---------------3--------------3-|-------------------------------------|
G||--------------------------------|-------------------------------------|
D||--------------------------------|-------------------------------------|
A||--------------------------------|-------------------------------------|
E||--------------------------------|-------------------------------------|


  S S S S Q    E  S S Q       S E   S  S S S S S S  
--3-3-3-0-5----5--5-3-7----|--3-3--12-10-7-3-0-3-3-|
---------------------------|-----------------------|
---------------------------|-----------------------|
---------------------------|-----------------------|
---------------------------|-----------------------|
---------------------------|-----------------------|


  S E  S S S S S S E  S S S S S    S E  S E  S  S  E   S  S  S  S S S  
--3-3--5-7-3-0---3-3--5-7-3-0---|--3-3--5-7--7-10-12--12-10-12-10-7-5-|
---------------3--------------3-|-------------------------------------|
--------------------------------|-------------------------------------|
--------------------------------|-------------------------------------|
--------------------------------|-------------------------------------|
--------------------------------|-------------------------------------|


  S S S S Q    E  S S S    S E   S  S S S S S S  
--3-3-3-0-5----5--5-3-7-|--3-3--12-10-7-3-0-3-3-|
------------------------|-----------------------|
------------------------|-----------------------|
------------------------|-----------------------|
------------------------|-----------------------|
------------------------|-----------------------|


  S S S  S  E  S  S  E   S T  T    S S S  S  E  S  S  E  S T T  
--8-8-8-10-12--8-12-10--10-7-10-|--8-8-8-10-11--8-11-10--7-3-5-|
--------------------------------|------------------------------|
--------------------------------|------------------------------|
--------------------------------|------------------------------|
--------------------------------|------------------------------|
--------------------------------|------------------------------|


  S E  S S S S S S E  S S S S S    S E  S E  S  S  E   S  S  S  S S S  
--3-3--5-7-3-0---3-3--5-7-3-0---|--3-3--5-7--7-10-12--12-10-12-10-7-5-|
---------------3--------------3-|-------------------------------------|
--------------------------------|-------------------------------------|
--------------------------------|-------------------------------------|
--------------------------------|-------------------------------------|
--------------------------------|-------------------------------------|


  S S S S Q    E  S S Q       S E   S  S S S S S S    S S S S Q    E  S S Q     
--3-3-3-0-5----5--5-3-7----|--3-3--12-10-7-3-0-3-3-|--3-3-3-0-5----5--5-3-7----|
---------------------------|-----------------------|---------------------------|
---------------------------|-----------------------|---------------------------|
---------------------------|-----------------------|---------------------------|
---------------------------|-----------------------|---------------------------|
---------------------------|-----------------------|---------------------------|


  S E   S  S S S S S S    S S S  S  E  S  S  E   S T  T  
--3-3--12-10-7-3-0-3-3-|--8-8-8-10-12--8-12-10--10-7-10-|
-----------------------|--------------------------------|
-----------------------|--------------------------------|
-----------------------|--------------------------------|
-----------------------|--------------------------------|
-----------------------|--------------------------------|


  S S S  S  E  S  S  E  S T T    S E  S S S S S S E  S S S S S  
--8-8-8-10-11--8-11-10--7-3-5-|--3-3--5-7-3-0---3-3--5-7-3-0---|
------------------------------|---------------3--------------3-|
------------------------------|--------------------------------|
------------------------------|--------------------------------|
------------------------------|--------------------------------|
------------------------------|--------------------------------|


  S E  S E  S  S  E   S  S  S  S S S    S S S S Q    E  S S Q     
--3-3--5-7--7-10-12--12-10-12-10-7-5-|--3-3-3-0-5----5--5-3-7----|
-------------------------------------|---------------------------|
-------------------------------------|---------------------------|
-------------------------------------|---------------------------|
-------------------------------------|---------------------------|
-------------------------------------|---------------------------|


  S E   S  S S S S S S    S E   S  S S S S S S   
--3-3--12-10-7-3-0-3-3-|--3-3--12-10-7-3-0-3-3-||
-----------------------|-----------------------||
-----------------------|-----------------------||
-----------------------|-----------------------||
-----------------------|-----------------------||
-----------------------|-----------------------||




Duration Legend
---------------
W - whole
H - half
Q - quarter
E - 8th
S - 16th
T - 32nd
X - 64th
. - note dotted
|-n-|  - n-tuplets


Tablature Legend
----------------
L - tied note
x - dead note
g - grace note
(n) - ghost note
> - accentuded note
NH - natural harmonic
AH - artificial harmonic
TH - tapped harmonic
SH - semi harmonic
PH - pitch harmonic
h - hammer on
p - pull off
b - bend
br - bendRelease
pb - preBend
pbr - preBendRelease
brb - bendReleaseBend
\n/ - tremolo bar dip
\n - tremolo bar dive
-/n - tremolo bar Release up
/n\ - tremolo bar inverted dip
/n - tremolo bar return
-\n - tremolo bar Release down
S - shift slide
s - legato slide
/ -  slide into from below or out of upwards
\ -  slide into from above or out of downwards
~ - vibrato
W - wide vibrato
tr - trill
TP - tremolo picking
T - tapping
S - slap
P - pop
< - fade in
^ - brush up
v - brush down
Добавлено: 17.10.2015
Другие материалы по этой песне:
  • Аккорды и текст

Страница создана 17.10.2015
http://primanota.ru/misc-unsigned-bands/kyu-sakamoto-sukiyaki-chords.htm
Привет, Гость.
Предлагаем пройти революционный курс по гитаре.
Подарок от PrimaNota.Ru, забирай!