PrimaNota.ru - самый крупный в мире бесплатный архив песенных текстов, аккордов, табулатур и нот


Misc Unsigned Bands - Love Robot - Cucha - таба

Регистрация Запомнить меня
Войти через:  Facebook Google Twitter Vk Yandex Mail.ru

Misc Unsigned Bands - Love Robot - Cucha - таба

Печатать
Просмотров: 86
-------------------------------------------------------------------------------
                             Cucha - Love, Robot
-------------------------------------------------------------------------------
So here's the beautiful song Cucha by one of my favorite bands Love, Robot.
This is the normal version, but the time fits with the music video. Enjoy!
Tabbed by: Nadessalive
Tuning: Standard
Capo 4th fret

Intro/Verse(0:07-0:20):
Strumming: constantly DUDU

e|-0-------0--0--0--0--|------0----|
B|-8-------5--3--5--7--|------8----|
G|-0-------0--0--0--0--|-2x---0----|
D|-0-------0--0--0--0--|------0----|
A|-7-------3--2--3--5--|------7----|
E|-x-------x--x--x--x--|------x----|
  16x      3x 3x 3x 3x        1x

Verse(0:22-0:33):
     
e|-0-------0--0--0--0--|------|
B|-8-------5--3--5--7--|------|
G|-0-------0--0--0--0--|-2x---|
D|-0-------0--0--0--0--|------|
A|-7-------3--2--3--5--|------|
E|-x-------x--x--x--x--|------|
  16x      3x 3x 3x 3x 

Pre-Chorus(0:34-0:38):

e|-0---0----0-0-x-0-0------|
B|-8---10---7-7-x-7-7------|
G|-0---0----0-0-x-0-0------|
D|-0---0----0-0-x-0-0------|
A|-7---9----5-5-x-5-5------|
E|-x---x----x-x-x-x-x------|
   8x  8x   D U D U.U.

Chorus(0:39-0:50):

e|-0---0----0------------|
B|-5---7----12-----------|
G|-0---0----0-----2x-----|
D|-0---0----0------------|
A|-3---5----10-----------|
E|-x---x----x------------|
  16x  8x   8x

Verse(0:52-1:15):
     
e|-0-------0--0--0--0--|------|
B|-8-------5--3--5--7--|------|
G|-0-------0--0--0--0--|-4x---|
D|-0-------0--0--0--0--|------|
A|-7-------3--2--3--5--|------|
E|-x-------x--x--x--x--|------|
  16x      3x 3x 3x 3x 

Pre-Chorus 2(1:16-1:21):

e|-0--0--0--0--|
B|-8--10-7--5--|
G|-0--0--0--0--|
D|-0--0--0--0--|
A|-7--9--5--3--|
E|-x--x--x--x--|
  8x 8x 8x 8x

Chorus (1:22-1:44):

e|-0---0----0------------|
B|-5---7----12-----------|
G|-0---0----0-----4x-----|
D|-0---0----0------------|
A|-3---5----10-----------|
E|-x---x----x------------|
  16x  8x   8x

Post-Chorus (1:45-1:56):

 Alexa's Part:                              
e|-----------------------------------------|
B|------3-p-0-----3-p-0------8-p-0-----12--|
G|-----------------------------------------|
D|----2---------2----------0---------------|4x
A|--3---------3----------7----------10-----|
E|-----------------------------------------|
 
Bridge Part 1 (1:57-2:21):

  Sean's Riff:                 Alexa's Part (constant strumming starts right after the Riff):
e|--------3-5-7-5-3-------------------0----------0---0---0-----------------------|
B|-0-3-5------------------------------8----------8---5---3-----------------------|
G|--------------------5x--------Riff--0---Riff---0---0---0---Riff---------2x-----|
D|------------------------------------0----------0---0---0-----------------------|
A|------------------------------------7----------7---3---2-----------------------|
E|------------------------------------x----------x---x---x-----------------------|
                                  1:58-2:02  2:04 - 2:06 - 2:08

Bridge Part 2 (2:22-3:09):
                                     'I owe so much more...'
e|--0-----0---0--------------------------0---------------0-------|
B|--8-----5---3--------------------------7---------------3-------|
G|--0-----0---0--------------------------0---instead of -0-------|
D|--0-----0---0--------------------------0---------------0-------|
A|--7-----3---2--------------------------5---------------2-------|
E|--x-----x---x--------------------------x---------------x-------|
  2:22  2:28 2:31                      2:54

Post-Bridge/Verse (3:10-3:20):
     
e|-0-------0--0--0--0--|------|
B|-8-------5--3--5--7--|------|
G|-0-------0--0--0--0--|-2x---|
D|-0-------0--0--0--0--|------|
A|-7-------3--2--3--5--|------|
E|-x-------x--x--x--x--|------|
  16x      3x 3x 3x 3x 

Chorus (3:21-3:44):

e|-0---0----0---0------------|
B|-5---7----8---12-----------|
G|-0---0----0---0-----4x-----|
D|-0---0-or-0---0------------|
A|-3---5----7---10-----------|
E|-x---x----x---x------------|
  16x  8x   8x  8x

Outro (3:45-3:47):

e|--0-----0-----0--0--0--|
B|--5----12----12-12-12--|
G|--0-----0-----0--0--0--|
D|--0-----0-----0--0--0--|
A|--3----10----10-10-10--|
E|--x-----x-----x--x--x--|
    8x    4x    .  .  .

************************************

| /   slide up
| \   slide down
| h   hammer-on
| p   pull-off
| ~   vibrato
| +   harmonic
| x   Mute note
| b   Bend
| pb  Pre-bend
| br  Bend release
| pbr Pre-bend release
| brb Bend release bend

************************************
Добавлено: 17.10.2015
Другие материалы по этой песне:
  • Аккорды и текст

Страница создана 17.10.2015
http://primanota.ru/misc-unsigned-bands/love-robot-cucha-chords.htm
Привет, Гость.
Предлагаем пройти революционный курс по гитаре.
Подарок от PrimaNota.Ru, забирай!