PrimaNota.ru - самый крупный в мире бесплатный архив песенных текстов, аккордов, табулатур и нот


Misc Unsigned Bands - Juliette - I Love You - таба, видео

Регистрация Запомнить меня
Войти через:  Facebook Google Twitter Vk Yandex Mail.ru

Misc Unsigned Bands - Juliette - I Love You - таба, видео

Печатать
Просмотров: 90
-= Tabs for Lala Song =-

==================================================================================

Guitar Help
==================================================================================

o = Open
m = Palm-Muted
x = Harmonics
r = Reversed Swell.  Achieved with the volume button or a volume pedal.

==================================================================================

Guitar 1 Tabs
==================================================================================

  0:00
E ------------------------------------------------------------------------------------------------|
B ------------------------------------------------------------------------------------------------|
G 5-----5-----5-----5-----5-----5-----5-----5-----------------------------------------------------|
D 5-----5-----5-----5-----5-----5-----5-----5-----5-----5-----5-----5-----5-----5-----5-----5-----|
A 3-----3-----3-----3-----3-----3-----3-----3-----5-----5-----5-----5-----5-----5-----5-----5-----|
E ------------------------------------------------3-----3-----3-----3-----3-----3-----3-----3-----|
  m-----m-----m-----m-----m-----m-----m-----m-----m-----m-----m-----m-----m-----m-----m-----m-----|

  0:02
E ------------------------------------------------------------------------------------------------|
B ------------------------------------------------------------------------------------------------|
G ------------------------------------------------------------------------------------------------|
D 3-----3-----3-----3-----3-----3-----3-----3-----5-----5-----5-----5-----5-----5-----5-----5-----|
A 3-----3-----3-----3-----3-----3-----3-----3-----5-----5-----5-----5-----5-----5-----5-----5-----|
E 1-----1-----1-----1-----1-----1-----1-----1-----3-----3-----3-----3-----3-----3-----3-----3-----|
  m-----m-----m-----m-----m-----m-----m-----m-----m-----m-----m-----m-----m-----m-----m-----m-----|

  0:05
E ------------------------------------------------------------------------------------------------|
B ------------------------------------------------------------------------------------------------|
G 5-----5-----5-----5-----5-----5-----5-----5-----------------------------------------------------|
D 5-----5-----5-----5-----5-----5-----5-----5-----5-----5-----5-----5-----5-----5-----5-----5-----|
A 3-----3-----3-----3-----3-----3-----3-----3-----5-----5-----5-----5-----5-----5-----5-----5-----|
E ------------------------------------------------3-----3-----3-----3-----3-----3-----3-----3-----|
  o-----o-----o-----o-----o-----o-----o-----o-----o-----o-----o-----o-----o-----o-----o-----o-----|

  0:08
E ------------------------------------------------------------------------------------------------|
B ------------------------------------------------------------------------------------------------|
G ------------------------------------------------------------------------------------------------|
D 3-----3-----3-----3-----3-----3-----3-----3-----5-----5-----5-----5-----5-----5-----5-----5-----|
A 3-----3-----3-----3-----3-----3-----3-----3-----5-----5-----5-----5-----5-----5-----5-----5-----|
E 1-----1-----1-----1-----1-----1-----1-----1-----3-----3-----3-----3-----3-----3-----3-----3-----|
  o-----o-----o-----o-----o-----o-----o-----o-----o-----o-----o-----o-----o-----o-----o-----o-----|

  0:11
E ------------------------------------------------------------------------------------------------|
B ------------------------------------------------------------------------------------------------|
G 5-----5-----5-----5-----5-----5-----5-----5-----------------------------------------------------|
D 5-----5-----5-----5-----5-----5-----5-----5-----5-----5-----5-----5-----5-----5-----5-----5-----|
A 3-----3-----3-----3-----3-----3-----3-----3-----5-----5-----5-----5-----5-----5-----5-----5-----|
E ------------------------------------------------3-----3-----3-----3-----3-----3-----3-----3-----|
  o-----o-----o-----o-----o-----o-----o-----o-----o-----o-----o-----o-----o-----o-----o-----o-----|

  0:14
E ------------------------------------------------------------------------------------------------|
B ------------------------------------------------------------------------------------------------|
G ------------------------------------------------------------------------------------------------|
D 3-----3-----3-----3-----3-----3-----3-----3-----5-----5-----5-----5-----5-----5-----5-----5-----|
A 3-----3-----3-----3-----3-----3-----3-----3-----5-----5-----5-----5-----5-----5-----5-----5-----|
E 1-----1-----1-----1-----1-----1-----1-----1-----3-----3-----3-----3-----3-----3-----3-----3-----|
  o-----o-----o-----o-----o-----o-----o-----o-----o-----o-----o-----o-----o-----o-----o-----o-----|

  0:16
E ------------------------------------------------------------------------------------------------|
B ------------------------------------------------------------------------------------------------|
G 5-----5-----5-----5-----5-----5-----5-----5-----------------------------------------------------|
D 5-----5-----5-----5-----5-----5-----5-----5-----5-----5-----5-----5-----5-----5-----5-----5-----|
A 3-----3-----3-----3-----3-----3-----3-----3-----5-----5-----5-----5-----5-----5-----5-----5-----|
E ------------------------------------------------3-----3-----3-----3-----3-----3-----3-----3-----|
  m-----m-----m-----m-----m-----m-----m-----m-----m-----m-----m-----m-----m-----m-----m-----m-----|

  0:19
E ------------------------------------------------------------------------------------------------|
B ------------------------------------------------------------------------------------------------|
G ------------------------------------------------------------------------------------------------|
D 3-----3-----3-----3-----3-----3-----3-----3-----5-----5-----5-----5-----5-----5-----5-----5-----|
A 3-----3-----3-----3-----3-----3-----3-----3-----5-----5-----5-----5-----5-----5-----5-----5-----|
E 1-----1-----1-----1-----1-----1-----1-----1-----3-----3-----3-----3-----3-----3-----3-----3-----|
  m-----m-----m-----m-----m-----m-----m-----m-----m-----m-----m-----m-----m-----m-----m-----m-----|

  0:22
E ------------------------------------------------------------------------------------------------|
B ------------------------------------------------------------------------------------------------|
G 5-----5-----5-----5-----5-----5-----5-----5-----------------------------------------------------|
D 5-----5-----5-----5-----5-----5-----5-----5-----5-----5-----5-----5-----5-----5-----5-----5-----|
A 3-----3-----3-----3-----3-----3-----3-----3-----5-----5-----5-----5-----5-----5-----5-----5-----|
E ------------------------------------------------3-----3-----3-----3-----3-----3-----3-----3-----|
  m-----m-----m-----m-----m-----m-----m-----m-----m-----m-----m-----m-----m-----m-----m-----m-----|

  0:25
E ------------------------------------------------------------------------------------------------|
B ------------------------------------------------------------------------------------------------|
G ------------------------------------------------------------------------------------------------|
D 3-----3-----3-----3-----3-----3-----3-----3-----5-----5-----5-----5-----5-----5-----5-----5-----|
A 3-----3-----3-----3-----3-----3-----3-----3-----5-----5-----5-----5-----5-----5-----5-----5-----|
E 1-----1-----1-----1-----1-----1-----1-----1-----3-----3-----3-----3-----3-----3-----3-----3-----|
  m-----m-----m-----m-----m-----m-----m-----m-----m-----m-----m-----m-----m-----m-----m-----m-----|

  0:28
E ------------------------------------------------------------------------------------------------|
B ------------------------------------------------------------------------------------------------|
G 5-----5-----5-----5-----5-----5-----5-----5-----------------------------------------------------|
D 5-----5-----5-----5-----5-----5-----5-----5-----5-----5-----5-----5-----5-----5-----5-----5-----|
A 3-----3-----3-----3-----3-----3-----3-----3-----5-----5-----5-----5-----5-----5-----5-----5-----|
E ------------------------------------------------3-----3-----3-----3-----3-----3-----3-----3-----|
  o-----o-----o-----o-----o-----o-----o-----o-----o-----o-----o-----o-----o-----o-----o-----o-----|

  0:31
E ------------------------------------------------------------------------------------------------|
B ------------------------------------------------------------------------------------------------|
G ------------------------------------------------------------------------------------------------|
D 3-----3-----3-----3-----3-----3-----3-----3-----5-----5-----5-----5-----5-----5-----5-----5-----|
A 3-----3-----3-----3-----3-----3-----3-----3-----5-----5-----5-----5-----5-----5-----5-----5-----|
E 1-----1-----1-----1-----1-----1-----1-----1-----3-----3-----3-----3-----3-----3-----3-----3-----|
  o-----o-----o-----o-----o-----o-----o-----o-----o-----o-----o-----o-----o-----o-----o-----o-----|

  0:33
E ------------------------------------------------------------------------------------------------|
B ------------------------------------------------------------------------------------------------|
G 5-----5-----5-----5-----5-----5-----5-----5-----------------------------------------------------|
D 5-----5-----5-----5-----5-----5-----5-----5-----5-----5-----5-----5-----5-----5-----5-----5-----|
A 3-----3-----3-----3-----3-----3-----3-----3-----5-----5-----5-----5-----5-----5-----5-----5-----|
E ------------------------------------------------3-----3-----3-----3-----3-----3-----3-----3-----|
  o-----o-----o-----o-----o-----o-----o-----o-----o-----o-----o-----o-----o-----o-----o-----o-----|

  0:36
E ------------------------------------------------------------------------------------------------|
B ------------------------------------------------------------------------------------------------|
G ------------------------------------------------------------------------------------------------|
D 3-----3-----3-----3-----3-----3-----3-----3-----5-----5-----5-----5-----5-----5-----5-----5-----|
A 3-----3-----3-----3-----3-----3-----3-----3-----5-----5-----5-----5-----5-----5-----5-----5-----|
E 1-----1-----1-----1-----1-----1-----1-----1-----3-----3-----3-----3-----3-----3-----3-----3-----|
  o-----o-----o-----o-----o-----o-----o-----o-----o-----o-----o-----o-----o-----o-----o-----o-----|

  0:39
E ------------------------------------------------------------------------------------------------|
B ------------------------------------------------------------------------------------------------|
G 5-----5-----5-----5-----5-----5-----5-----5-----------------------------------------------------|
D 5-----5-----5-----5-----5-----5-----5-----5-----5-----5-----5-----5-----5-----5-----5-----5-----|
A 3-----3-----3-----3-----3-----3-----3-----3-----5-----5-----5-----5-----5-----5-----5-----5-----|
E ------------------------------------------------3-----3-----3-----3-----3-----3-----3-----3-----|
  o-----o-----o-----o-----o-----o-----o-----o-----o-----o-----o-----o-----o-----o-----o-----o-----|

  0:42
E ------------------------------------------------------------------------------------------------|
B ------------------------------------------------------------------------------------------------|
G ------------------------------------------------------------------------------------------------|
D 3-----3-----3-----3-----3-----3-----3-----3-----5-----5-----5-----5-----5-----5-----5-----5-----|
A 3-----3-----3-----3-----3-----3-----3-----3-----5-----5-----5-----5-----5-----5-----5-----5-----|
E 1-----1-----1-----1-----1-----1-----1-----1-----3-----3-----3-----3-----3-----3-----3-----3-----|
  o-----o-----o-----o-----o-----o-----o-----o-----o-----o-----o-----o-----o-----o-----o-----o-----|

  0:45
E ------------------------------------------------------------------------------------------------|
B ------------------------------------------------------------------------------------------------|
G 5-----5-----5-----5-----5-----5-----5-----5-----------------------------------------------------|
D 5-----5-----5-----5-----5-----5-----5-----5-----5-----5-----5-----5-----5-----5-----5-----5-----|
A 3-----3-----3-----3-----3-----3-----3-----3-----5-----5-----5-----5-----5-----5-----5-----5-----|
E ------------------------------------------------3-----3-----3-----3-----3-----3-----3-----3-----|
  m-----m-----m-----m-----m-----m-----m-----m-----m-----m-----m-----m-----m-----m-----m-----m-----|

  0:47
E ------------------------------------------------------------------------------------------------|
B ------------------------------------------------------------------------------------------------|
G ------------------------------------------------------------------------------------------------|
D 3-----3-----3-----3-----3-----3-----3-----3-----5-----5-----5-----5-----5-----5-----5-----5-----|
A 3-----3-----3-----3-----3-----3-----3-----3-----5-----5-----5-----5-----5-----5-----5-----5-----|
E 1-----1-----1-----1-----1-----1-----1-----1-----3-----3-----3-----3-----3-----3-----3-----3-----|
  m-----m-----m-----m-----m-----m-----m-----m-----m-----m-----m-----m-----m-----m-----m-----m-----|

  0:50
E ------------------------------------------------------------------------------------------------|
B ------------------------------------------------------------------------------------------------|
G 5-----5-----5-----5-----5-----5-----5-----5-----------------------------------------------------|
D 5-----5-----5-----5-----5-----5-----5-----5-----5-----5-----5-----5-----5-----5-----5-----5-----|
A 3-----3-----3-----3-----3-----3-----3-----3-----5-----5-----5-----5-----5-----5-----5-----5-----|
E ------------------------------------------------3-----3-----3-----3-----3-----3-----3-----3-----|
  m-----m-----m-----m-----m-----m-----m-----m-----m-----m-----m-----m-----m-----m-----m-----m-----|

  0:53
E ------------------------------------------------------------------------------------------------|
B ------------------------------------------------------------------------------------------------|
G ------------------------------------------------------------------------------------------------|
D 3-----3-----3-----3-----3-----3-----3-----3-----5-----5-----5-----5-----5-----5-----5-----5-----|
A 3-----3-----3-----3-----3-----3-----3-----3-----5-----5-----5-----5-----5-----5-----5-----5-----|
E 1-----1-----1-----1-----1-----1-----1-----1-----3-----3-----3-----3-----3-----3-----3-----3-----|
  m-----m-----m-----m-----m-----m-----m-----m-----m-----m-----m-----m-----m-----m-----m-----m-----|

  0:56
E ------------------------------------------------------------------------------------------------|
B ------------------------------------------------------------------------------------------------|
G 5-----5-----5-----5-----5-----5-----5-----5-----------------------------------------------------|
D 5-----5-----5-----5-----5-----5-----5-----5-----5-----5-----5-----5-----5-----5-----5-----5-----|
A 3-----3-----3-----3-----3-----3-----3-----3-----5-----5-----5-----5-----5-----5-----5-----5-----|
E ------------------------------------------------3-----3-----3-----3-----3-----3-----3-----3-----|
  o-----o-----o-----o-----o-----o-----o-----o-----o-----o-----o-----o-----o-----o-----o-----o-----|

  0:59
E ------------------------------------------------------------------------------------------------|
B ------------------------------------------------------------------------------------------------|
G ------------------------------------------------------------------------------------------------|
D 3-----3-----3-----3-----3-----3-----3-----3-----5-----5-----5-----5-----5-----5-----5-----5-----|
A 3-----3-----3-----3-----3-----3-----3-----3-----5-----5-----5-----5-----5-----5-----5-----5-----|
E 1-----1-----1-----1-----1-----1-----1-----1-----3-----3-----3-----3-----3-----3-----3-----3-----|
  o-----o-----o-----o-----o-----o-----o-----o-----o-----o-----o-----o-----o-----o-----o-----o-----|

  1:02
E ------------------------------------------------------------------------------------------------|
B ------------------------------------------------------------------------------------------------|
G 5-----5-----5-----5-----5-----5-----5-----5-----------------------------------------------------|
D 5-----5-----5-----5-----5-----5-----5-----5-----5-----5-----5-----5-----5-----5-----5-----5-----|
A 3-----3-----3-----3-----3-----3-----3-----3-----5-----5-----5-----5-----5-----5-----5-----5-----|
E ------------------------------------------------3-----3-----3-----3-----3-----3-----3-----3-----|
  o-----o-----o-----o-----o-----o-----o-----o-----o-----o-----o-----o-----o-----o-----o-----o-----|

  1:04
E ------------------------------------------------------------------------------------------------|
B ------------------------------------------------------------------------------------------------|
G ------------------------------------------------------------------------------------------------|
D 3-----3-----3-----3-----3-----3-----3-----3-----5-----5-----5-----5-----5-----5-----5-----5-----|
A 3-----3-----3-----3-----3-----3-----3-----3-----5-----5-----5-----5-----5-----5-----5-----5-----|
E 1-----1-----1-----1-----1-----1-----1-----1-----3-----3-----3-----3-----3-----3-----3-----3-----|
  o-----o-----o-----o-----o-----o-----o-----o-----o-----o-----o-----o-----o-----o-----o-----o-----|

  1:07
E ------------------------------------------------------------------------------------------------|
B ------------------------------------------------------------------------------------------------|
G 5-----5-----5-----5-----5-----5-----5-----5-----------------------------------------------------|
D 5-----5-----5-----5-----5-----5-----5-----5-----5-----5-----5-----5-----5-----5-----5-----5-----|
A 3-----3-----3-----3-----3-----3-----3-----3-----5-----5-----5-----5-----5-----5-----5-----5-----|
E ------------------------------------------------3-----3-----3-----3-----3-----3-----3-----3-----|
  o-----o-----o-----o-----o-----o-----o-----o-----o-----o-----o-----o-----o-----o-----o-----o-----|

  1:10
E ------------------------------------------------------------------------------------------------|
B ------------------------------------------------------------------------------------------------|
G ------------------------------------------------------------------------------------------------|
D 3-----3-----3-----3-----3-----3-----3-----3-----5-----5-----5-----5-----5-----5-----5-----5-----|
A 3-----3-----3-----3-----3-----3-----3-----3-----5-----5-----5-----5-----5-----5-----5-----5-----|
E 1-----1-----1-----1-----1-----1-----1-----1-----3-----3-----3-----3-----3-----3-----3-----3-----|
  o-----o-----o-----o-----o-----o-----o-----o-----o-----o-----o-----o-----o-----o-----o-----o-----|

  1:13
E ------------------------------------------------------------------------------------------------|
B ------------------------------------------------------------------------------------------------|
G 5-----5-----5-----5-----5-----5-----5-----5-----------------------------------------------------|
D 5-----5-----5-----5-----5-----5-----5-----5-----5-----5-----5-----5-----5-----5-----5-----5-----|
A 3-----3-----3-----3-----3-----3-----3-----3-----5-----5-----5-----5-----5-----5-----5-----5-----|
E ------------------------------------------------3-----3-----3-----3-----3-----3-----3-----3-----|
  m-----m-----m-----m-----m-----m-----m-----m-----m-----m-----m-----m-----m-----m-----m-----m-----|

  1:16
E ------------------------------------------------------------------------------------------------|
B ------------------------------------------------------------------------------------------------|
G ------------------------------------------------------------------------------------------------|
D 3-----3-----3-----3-----3-----3-----3-----3-----5-----5-----5-----5-----5-----5-----5-----5-----|
A 3-----3-----3-----3-----3-----3-----3-----3-----5-----5-----5-----5-----5-----5-----5-----5-----|
E 1-----1-----1-----1-----1-----1-----1-----1-----3-----3-----3-----3-----3-----3-----3-----3-----|
  m-----m-----m-----m-----m-----m-----m-----m-----m-----m-----m-----m-----m-----m-----m-----m-----|

  1:19
E ------------------------------------------------------------------------------------------------|
B ------------------------------------------------------------------------------------------------|
G 5-----5-----5-----5-----5-----5-----5-----5-----------------------------------------------------|
D 5-----5-----5-----5-----5-----5-----5-----5-----5-----5-----5-----5-----5-----5-----5-----5-----|
A 3-----3-----3-----3-----3-----3-----3-----3-----5-----5-----5-----5-----5-----5-----5-----5-----|
E ------------------------------------------------3-----3-----3-----3-----3-----3-----3-----3-----|
  m-----m-----m-----m-----m-----m-----m-----m-----m-----m-----m-----m-----m-----m-----m-----m-----|

  1:21
E ------------------------------------------------------------------------------------------------|
B ------------------------------------------------------------------------------------------------|
G ------------------------------------------------------------------------------------------------|
D 3-----3-----3-----3-----3-----3-----3-----3-----5-----5-----5-----5-----5-----5-----5-----5-----|
A 3-----3-----3-----3-----3-----3-----3-----3-----5-----5-----5-----5-----5-----5-----5-----5-----|
E 1-----1-----1-----1-----1-----1-----1-----1-----3-----3-----3-----3-----3-----3-----3-----3-----|
  m-----m-----m-----m-----m-----m-----m-----m-----m-----m-----m-----m-----m-----m-----m-----m-----|

  1:24
E ------------------------------------------------------------------------------------------------|
B ------------------------------------------------------------------------------------------------|
G 5-----5-----5-----5-----5-----5-----5-----5-----------------------------------------------------|
D 5-----5-----5-----5-----5-----5-----5-----5-----5-----5-----5-----5-----5-----5-----5-----5-----|
A 3-----3-----3-----3-----3-----3-----3-----3-----5-----5-----5-----5-----5-----5-----5-----5-----|
E ------------------------------------------------3-----3-----3-----3-----3-----3-----3-----3-----|
  o-----o-----o-----o-----o-----o-----o-----o-----o-----o-----o-----o-----o-----o-----o-----o-----|

  1:27
E ------------------------------------------------------------------------------------------------|
B ------------------------------------------------------------------------------------------------|
G ------------------------------------------------------------------------------------------------|
D 3-----3-----3-----3-----3-----3-----3-----3-----5-----5-----5-----5-----5-----5-----5-----5-----|
A 3-----3-----3-----3-----3-----3-----3-----3-----5-----5-----5-----5-----5-----5-----5-----5-----|
E 1-----1-----1-----1-----1-----1-----1-----1-----3-----3-----3-----3-----3-----3-----3-----3-----|
  o-----o-----o-----o-----o-----o-----o-----o-----o-----o-----o-----o-----o-----o-----o-----o-----|

  1:30
E ------------------------------------------------------------------------------------------------|
B ------------------------------------------------------------------------------------------------|
G 5-----5-----5-----5-----5-----5-----5-----5-----------------------------------------------------|
D 5-----5-----5-----5-----5-----5-----5-----5-----5-----5-----5-----5-----5-----5-----5-----5-----|
A 3-----3-----3-----3-----3-----3-----3-----3-----5-----5-----5-----5-----5-----5-----5-----5-----|
E ------------------------------------------------3-----3-----3-----3-----3-----3-----3-----3-----|
  o-----o-----o-----o-----o-----o-----o-----o-----o-----o-----o-----o-----o-----o-----o-----o-----|

  1:33
E ------------------------------------------------------------------------------------------------|
B ------------------------------------------------------------------------------------------------|
G ------------------------------------------------------------------------------------------------|
D 3-----3-----3-----3-----3-----3-----3-----3-----5-----5-----5-----5-----5-----5-----5-----5-----|
A 3-----3-----3-----3-----3-----3-----3-----3-----5-----5-----5-----5-----5-----5-----5-----5-----|
E 1-----1-----1-----1-----1-----1-----1-----1-----3-----3-----3-----3-----3-----3-----3-----3-----|
  o-----o-----o-----o-----o-----o-----o-----o-----o-----o-----o-----o-----o-----o-----o-----o-----|

  1:35
E ------------------------------------------------------------------------------------------------|
B ------------------------------------------------------------------------------------------------|
G 5-----5-----5-----5-----5-----5-----5-----5-----------------------------------------------------|
D 5-----5-----5-----5-----5-----5-----5-----5-----5-----5-----5-----5-----5-----5-----5-----5-----|
A 3-----3-----3-----3-----3-----3-----3-----3-----5-----5-----5-----5-----5-----5-----5-----5-----|
E ------------------------------------------------3-----3-----3-----3-----3-----3-----3-----3-----|
  o-----o-----o-----o-----o-----o-----o-----o-----o-----o-----o-----o-----o-----o-----o-----o-----|

  1:38
E ------------------------------------------------------------------------------------------------|
B ------------------------------------------------------------------------------------------------|
G ------------------------------------------------------------------------------------------------|
D 3-----3-----3-----3-----3-----3-----3-----3-----5-----5-----5-----5-----5-----5-----5-----5-----|
A 3-----3-----3-----3-----3-----3-----3-----3-----5-----5-----5-----5-----5-----5-----5-----5-----|
E 1-----1-----1-----1-----1-----1-----1-----1-----3-----3-----3-----3-----3-----3-----3-----3-----|
  o-----o-----o-----o-----o-----o-----o-----o-----o-----o-----o-----o-----o-----o-----o-----o-----|

  1:41
E ------------------------------------------------------------------------------------------------|
B ------------------------------------------------------------------------------------------------|
G 5-----5-----5-----5-----5-----5-----5-----5-----------------------------------------------------|
D 5-----5-----5-----5-----5-----5-----5-----5-----5-----5-----5-----5-----5-----5-----5-----5-----|
A 3-----3-----3-----3-----3-----3-----3-----3-----5-----5-----5-----5-----5-----5-----5-----5-----|
E ------------------------------------------------3-----3-----3-----3-----3-----3-----3-----3-----|
  m-----m-----m-----m-----m-----m-----m-----m-----m-----m-----m-----m-----m-----m-----m-----m-----|

  1:44
E ------------------------------------------------------------------------------------------------|
B ------------------------------------------------------------------------------------------------|
G ------------------------------------------------------------------------------------------------|
D 3-----3-----3-----3-----3-----3-----3-----3-----5-----5-----5-----5-----5-----5-----5-----5-----|
A 3-----3-----3-----3-----3-----3-----3-----3-----5-----5-----5-----5-----5-----5-----5-----5-----|
E 1-----1-----1-----1-----1-----1-----1-----1-----3-----3-----3-----3-----3-----3-----3-----3-----|
  m-----m-----m-----m-----m-----m-----m-----m-----m-----m-----m-----m-----m-----m-----m-----m-----|

  1:47
E ------------------------------------------------------------------------------------------------|
B ------------------------------------------------------------------------------------------------|
G 5-----5-----5-----5-----5-----5-----5-----5-----------------------------------------------------|
D 5-----5-----5-----5-----5-----5-----5-----5-----5-----5-----5-----5-----5-----5-----5-----5-----|
A 3-----3-----3-----3-----3-----3-----3-----3-----5-----5-----5-----5-----5-----5-----5-----5-----|
E ------------------------------------------------3-----3-----3-----3-----3-----3-----3-----3-----|
  m-----m-----m-----m-----m-----m-----m-----m-----m-----m-----m-----m-----m-----m-----m-----m-----|

  1:50
E ------------------------------------------------------------------------------------------------|
B ------------------------------------------------------------------------------------------------|
G ------------------------------------------------------------------------------------------------|
D 3-----3-----3-----3-----3-----3-----3-----3-----5-----5-----5-----5-----5-----5-----5-----5-----|
A 3-----3-----3-----3-----3-----3-----3-----3-----5-----5-----5-----5-----5-----5-----5-----5-----|
E 1-----1-----1-----1-----1-----1-----1-----1-----3-----3-----3-----3-----3-----3-----3-----3-----|
  m-----m-----m-----m-----m-----m-----m-----m-----m-----m-----m-----m-----m-----m-----m-----m-----|

  1:52
E ------------------------------------------------------------------------------------------------|
B ------------------------------------------------------------------------------------------------|
G 5-----5-----5-----5-----5-----5-----5-----5-----------------------------------------------------|
D 5-----5-----5-----5-----5-----5-----5-----5-----5-----5-----5-----5-----5-----5-----5-----5-----|
A 3-----3-----3-----3-----3-----3-----3-----3-----5-----5-----5-----5-----5-----5-----5-----5-----|
E ------------------------------------------------3-----3-----3-----3-----3-----3-----3-----3-----|
  o-----o-----o-----o-----o-----o-----o-----o-----o-----o-----o-----o-----o-----o-----o-----o-----|

  1:55
E ------------------------------------------------------------------------------------------------|
B ------------------------------------------------------------------------------------------------|
G ------------------------------------------------------------------------------------------------|
D 3-----3-----3-----3-----3-----3-----3-----3-----5-----5-----5-----5-----5-----5-----5-----5-----|
A 3-----3-----3-----3-----3-----3-----3-----3-----5-----5-----5-----5-----5-----5-----5-----5-----|
E 1-----1-----1-----1-----1-----1-----1-----1-----3-----3-----3-----3-----3-----3-----3-----3-----|
  o-----o-----o-----o-----o-----o-----o-----o-----o-----o-----o-----o-----o-----o-----o-----o-----|

  1:58
E ------------------------------------------------------------------------------------------------|
B ------------------------------------------------------------------------------------------------|
G 5-----5-----5-----5-----5-----5-----5-----5-----------------------------------------------------|
D 5-----5-----5-----5-----5-----5-----5-----5-----5-----5-----5-----5-----5-----5-----5-----5-----|
A 3-----3-----3-----3-----3-----3-----3-----3-----5-----5-----5-----5-----5-----5-----5-----5-----|
E ------------------------------------------------3-----3-----3-----3-----3-----3-----3-----3-----|
  o-----o-----o-----o-----o-----o-----o-----o-----o-----o-----o-----o-----o-----o-----o-----o-----|

  2:01
E ------------------------------------------------------------------------------------------------|
B ------------------------------------------------------------------------------------------------|
G ------------------------------------------------------------------------------------------------|
D 3-----3-----3-----3-----3-----3-----3-----3-----5-----5-----5-----5-----5-----5-----5-----5-----|
A 3-----3-----3-----3-----3-----3-----3-----3-----5-----5-----5-----5-----5-----5-----5-----5-----|
E 1-----1-----1-----1-----1-----1-----1-----1-----3-----3-----3-----3-----3-----3-----3-----3-----|
  o-----o-----o-----o-----o-----o-----o-----o-----o-----o-----o-----o-----o-----o-----o-----o-----|

  2:04
E ------------------------------------------------------------------------------------------------|
B ------------------------------------------------------------------------------------------------|
G 5-----------5-----------5-----------5-----------------------------------------------------------|
D 5-----------5-----------5-----------5-----------5-----------5-----------5-----------5-----------|
A 3-----------3-----------3-----------3-----------5-----------5-----------5-----------5-----------|
E ------------------------------------------------3-----------3-----------3-----------3-----------|
  o-----------o-----------o-----------o-----------o-----------o-----------o-----------o-----------|

  2:06
E ------------------------------------------------------------------------------------------------|
B ------------------------------------------------------------------------------------------------|
G ------------------------------------------------------------------------------------------------|
D 3-----------3-----------3-----------3-----------5-----------5-----------5-----------5-----------|
A 3-----------3-----------3-----------3-----------5-----------5-----------5-----------5-----------|
E 1-----------1-----------1-----------1-----------3-----------3-----------3-----------3-----------|
  o-----------o-----------o-----------o-----------o-----------o-----------o-----------o-----------|

  2:09
E ------------------------------------------------------------------------------------------------|
B ------------------------------------------------------------------------------------------------|
G 5-----------------------------------------------------------------------------------------------|
D 5-----------------------------------------------------------------------------------------------|
A 3-----------------------------------------------------------------------------------------------|
E ------------------------------------------------------------------------------------------------|
  o-----------------------------------------------------------------------------------------------|

  2:12
E ------------------------------------------------------------------------------------------------|
B ------------------------------------------------------------------------------------------------|
G ------------------------------------------------------------------------------------------------|
D ------------------------------------------------------------------------------------------------|
A ------------------------------------------------------------------------------------------------|
E ------------------------------------------------------------------------------------------------|
  ------------------------------------------------------------------------------------------------|

  2:15
E ------------------------|
B ------------------------|
G ------------------------|
D ------------------------|
A ------------------------|
E ------------------------|
  ------------------------|

==================================================================================

Guitar 2 Tabs
==================================================================================

  0:00
E ------------------------------------------------------------------------------------------------|
B ------------------------------------------------------------------------------------------------|
G ------------------------------------------------------------------------------------------------|
D ------------------------------------------------------------------------------------------------|
A ------------------------------------------------------------------------------------------------|
E ------------------------------------------------------------------------------------------------|
  ------------------------------------------------------------------------------------------------|

  0:02
E ------------------------------------------------------------------------------------------------|
B ------------------------------------------------------------------------------------------------|
G ------------------------------------------------------------------------------------------------|
D ------------------------------------------------------------------------------------------------|
A ------------------------------------------------------------------------------------------------|
E ------------------------------------------------------------------------------------------------|
  ------------------------------------------------------------------------------------------------|

  0:05
E ------------------------------------------------------------------------------------------------|
B ------------------------------------------------------------------------------------------------|
G 5-----5-----5-----5-----5-----5-----5-----5-----12----12----12----12----12----12----12----12----|
D x-----x-----x-----x-----x-----x-----x-----x-----x-----x-----x-----x-----x-----x-----x-----x-----|
A 3-----3-----3-----3-----3-----3-----3-----3-----10----10----10----10----10----10----10----10----|
E ------------------------------------------------------------------------------------------------|
  o-----o-----o-----o-----o-----o-----o-----o-----o-----o-----o-----o-----o-----o-----o-----o-----|

  0:08
E ------------------------------------------------------------------------------------------------|
B ------------------------------------------------------------------------------------------------|
G 10----10----10----10----10----10----10----10----12----12----12----12----12----12----12----12----|
D x-----x-----x-----x-----x-----x-----x-----x-----x-----x-----x-----x-----x-----x-----x-----x-----|
A 8-----8-----8-----8-----8-----8-----8-----8-----10----10----10----10----10----10----10----10----|
E ------------------------------------------------------------------------------------------------|
  o-----o-----o-----o-----o-----o-----o-----o-----o-----o-----o-----o-----o-----o-----o-----o-----|

  0:11
E ------------------------------------------------------------------------------------------------|
B ------------------------------------------------------------------------------------------------|
G 5-----5-----5-----5-----5-----5-----5-----5-----12----12----12----12----12----12----12----12----|
D x-----x-----x-----x-----x-----x-----x-----x-----x-----x-----x-----x-----x-----x-----x-----x-----|
A 3-----3-----3-----3-----3-----3-----3-----3-----10----10----10----10----10----10----10----10----|
E ------------------------------------------------------------------------------------------------|
  o-----o-----o-----o-----o-----o-----o-----o-----o-----o-----o-----o-----o-----o-----o-----o-----|

  0:14
E ------------------------------------------------------------------------------------------------|
B ------------------------------------------------------------------------------------------------|
G 10----10----10----10----10----10----10----10----12----12----12----12----12----12----12----12----|
D x-----x-----x-----x-----x-----x-----x-----x-----x-----x-----x-----x-----x-----x-----x-----x-----|
A 8-----8-----8-----8-----8-----8-----8-----8-----10----10----10----10----10----10----10----10----|
E ------------------------------------------------------------------------------------------------|
  o-----o-----o-----o-----o-----o-----o-----o-----o-----o-----o-----o-----o-----o-----o-----o-----|

  0:16
E ------------------------------------------------------------------------------------------------|
B ------------------------------------------------------------------------------------------------|
G ------------------------------------------------------------------------------------------------|
D ------------------------------------------------------------------------------------------------|
A 3-----3-----3-----3-----3-----3-----3-----3-----10----10----10----10----10----10----10----10----|
E ------------------------------------------------------------------------------------------------|
  m-----m-----m-----m-----m-----m-----m-----m-----m-----m-----m-----m-----m-----m-----m-----m-----|

  0:19
E ------------------------------------------------------------------------------------------------|
B ------------------------------------------------------------------------------------------------|
G ------------------------------------------------------------------------------------------------|
D ------------------------------------------------------------------------------------------------|
A 8-----8-----8-----8-----8-----8-----8-----8-----10----10----10----10----10----10----10----10----|
E ------------------------------------------------------------------------------------------------|
  m-----m-----m-----m-----m-----m-----m-----m-----m-----m-----m-----m-----m-----m-----m-----m-----|

  0:22
E ------------------------------------------------------------------------------------------------|
B ------------------------------------------------------------------------------------------------|
G ------------------------------------------------------------------------------------------------|
D ------------------------------------------------------------------------------------------------|
A 3-----3-----3-----3-----3-----3-----3-----3-----10----10----10----10----10----10----10----10----|
E ------------------------------------------------------------------------------------------------|
  m-----m-----m-----m-----m-----m-----m-----m-----m-----m-----m-----m-----m-----m-----m-----m-----|

  0:25
E ------------------------------------------------------------------------------------------------|
B ------------------------------------------------------------------------------------------------|
G ------------------------------------------------------------------------------------------------|
D ------------------------------------------------------------------------------------------------|
A 8-----8-----8-----8-----8-----8-----8-----8-----10----10----10----10----10----10----10----10----|
E ------------------------------------------------------------------------------------------------|
  m-----m-----m-----m-----m-----m-----m-----m-----m-----m-----m-----m-----m-----m-----m-----m-----|

  0:28
E ------------------------------------------------------------------------------------------------|
B ------------------------------------------------------------------------------------------------|
G 5-----5-----5-----5-----5-----5-----5-----5-----12----12----12----12----12----12----12----12----|
D x-----x-----x-----x-----x-----x-----x-----x-----x-----x-----x-----x-----x-----x-----x-----x-----|
A 3-----3-----3-----3-----3-----3-----3-----3-----10----10----10----10----10----10----10----10----|
E ------------------------------------------------------------------------------------------------|
  o-----o-----o-----o-----o-----o-----o-----o-----o-----o-----o-----o-----o-----o-----o-----o-----|

  0:31
E ------------------------------------------------------------------------------------------------|
B ------------------------------------------------------------------------------------------------|
G 10----10----10----10----10----10----10----10----12----12----12----12----12----12----12----12----|
D x-----x-----x-----x-----x-----x-----x-----x-----x-----x-----x-----x-----x-----x-----x-----x-----|
A 8-----8-----8-----8-----8-----8-----8-----8-----10----10----10----10----10----10----10----10----|
E ------------------------------------------------------------------------------------------------|
  o-----o-----o-----o-----o-----o-----o-----o-----o-----o-----o-----o-----o-----o-----o-----o-----|

  0:33
E ------------------------------------------------------------------------------------------------|
B ------------------------------------------------------------------------------------------------|
G 5-----5-----5-----5-----5-----5-----5-----5-----12----12----12----12----12----12----12----12----|
D x-----x-----x-----x-----x-----x-----x-----x-----x-----x-----x-----x-----x-----x-----x-----x-----|
A 3-----3-----3-----3-----3-----3-----3-----3-----10----10----10----10----10----10----10----10----|
E ------------------------------------------------------------------------------------------------|
  o-----o-----o-----o-----o-----o-----o-----o-----o-----o-----o-----o-----o-----o-----o-----o-----|

  0:36
E ------------------------------------------------------------------------------------------------|
B ------------------------------------------------------------------------------------------------|
G 10----10----10----10----10----10----10----10----12----12----12----12----12----12----12----12----|
D x-----x-----x-----x-----x-----x-----x-----x-----x-----x-----x-----x-----x-----x-----x-----x-----|
A 8-----8-----8-----8-----8-----8-----8-----8-----10----10----10----10----10----10----10----10----|
E ------------------------------------------------------------------------------------------------|
  o-----o-----o-----o-----o-----o-----o-----o-----o-----o-----o-----o-----o-----o-----o-----o-----|

  0:39
E ------------------------------------------------------------------------------------------------|
B ------------------------------------------------------------------------------------------------|
G 5-----5-----5-----5-----5-----5-----5-----5-----------------------------------------------------|
D 5-----5-----5-----5-----5-----5-----5-----5-----5-----5-----5-----5-----5-----5-----5-----5-----|
A 3-----3-----3-----3-----3-----3-----3-----3-----5-----5-----5-----5-----5-----5-----5-----5-----|
E ------------------------------------------------3-----3-----3-----3-----3-----3-----3-----3-----|
  o-----o-----o-----o-----o-----o-----o-----o-----o-----o-----o-----o-----o-----o-----o-----o-----|

  0:42
E ------------------------------------------------------------------------------------------------|
B ------------------------------------------------------------------------------------------------|
G ------------------------------------------------------------------------------------------------|
D 3-----3-----3-----3-----3-----3-----3-----3-----5-----5-----5-----5-----5-----5-----5-----5-----|
A 3-----3-----3-----3-----3-----3-----3-----3-----5-----5-----5-----5-----5-----5-----5-----5-----|
E 1-----1-----1-----1-----1-----1-----1-----1-----3-----3-----3-----3-----3-----3-----3-----3-----|
  o-----o-----o-----o-----o-----o-----o-----o-----o-----o-----o-----o-----o-----o-----o-----o-----|

  0:45
E ------------------------------------------------------------------------------------------------|
B ------------------------------------------------------------------------------------------------|
G ------------------------------------------------------------------------------------------------|
D ------------------------------------------------------------------------------------------------|
A 3-----3-----3-----3-----3-----3-----3-----3-----10----10----10----10----10----10----10----10----|
E ------------------------------------------------------------------------------------------------|
  m-----m-----m-----m-----m-----m-----m-----m-----m-----m-----m-----m-----m-----m-----m-----m-----|

  0:47
E ------------------------------------------------------------------------------------------------|
B ------------------------------------------------------------------------------------------------|
G ------------------------------------------------------------------------------------------------|
D ------------------------------------------------------------------------------------------------|
A 8-----8-----8-----8-----8-----8-----8-----8-----10----10----10----10----10----10----10----10----|
E ------------------------------------------------------------------------------------------------|
  m-----m-----m-----m-----m-----m-----m-----m-----m-----m-----m-----m-----m-----m-----m-----m-----|

  0:50
E ------------------------------------------------------------------------------------------------|
B ------------------------------------------------------------------------------------------------|
G ------------------------------------------------------------------------------------------------|
D ------------------------------------------------------------------------------------------------|
A 3-----3-----3-----3-----3-----3-----3-----3-----10----10----10----10----10----10----10----10----|
E ------------------------------------------------------------------------------------------------|
  m-----m-----m-----m-----m-----m-----m-----m-----m-----m-----m-----m-----m-----m-----m-----m-----|

  0:53
E ------------------------------------------------------------------------------------------------|
B ------------------------------------------------------------------------------------------------|
G ------------------------------------------------------------------------------------------------|
D ------------------------------------------------------------------------------------------------|
A 8-----8-----8-----8-----8-----8-----8-----8-----10----10----10----10----10----10----10----10----|
E ------------------------------------------------------------------------------------------------|
  m-----m-----m-----m-----m-----m-----m-----m-----m-----m-----m-----m-----m-----m-----m-----m-----|

  0:56
E ------------------------------------------------------------------------------------------------|
B ------------------------------------------------------------------------------------------------|
G 5-----5-----5-----5-----5-----5-----5-----5-----12----12----12----12----12----12----12----12----|
D x-----x-----x-----x-----x-----x-----x-----x-----x-----x-----x-----x-----x-----x-----x-----x-----|
A 3-----3-----3-----3-----3-----3-----3-----3-----10----10----10----10----10----10----10----10----|
E ------------------------------------------------------------------------------------------------|
  o-----o-----o-----o-----o-----o-----o-----o-----o-----o-----o-----o-----o-----o-----o-----o-----|

  0:59
E ------------------------------------------------------------------------------------------------|
B ------------------------------------------------------------------------------------------------|
G 10----10----10----10----10----10----10----10----12----12----12----12----12----12----12----12----|
D x-----x-----x-----x-----x-----x-----x-----x-----x-----x-----x-----x-----x-----x-----x-----x-----|
A 8-----8-----8-----8-----8-----8-----8-----8-----10----10----10----10----10----10----10----10----|
E ------------------------------------------------------------------------------------------------|
  o-----o-----o-----o-----o-----o-----o-----o-----o-----o-----o-----o-----o-----o-----o-----o-----|

  1:02
E ------------------------------------------------------------------------------------------------|
B ------------------------------------------------------------------------------------------------|
G 5-----5-----5-----5-----5-----5-----5-----5-----12----12----12----12----12----12----12----12----|
D x-----x-----x-----x-----x-----x-----x-----x-----x-----x-----x-----x-----x-----x-----x-----x-----|
A 3-----3-----3-----3-----3-----3-----3-----3-----10----10----10----10----10----10----10----10----|
E ------------------------------------------------------------------------------------------------|
  o-----o-----o-----o-----o-----o-----o-----o-----o-----o-----o-----o-----o-----o-----o-----o-----|

  1:04
E ------------------------------------------------------------------------------------------------|
B ------------------------------------------------------------------------------------------------|
G 10----10----10----10----10----10----10----10----12----12----12----12----12----12----12----12----|
D x-----x-----x-----x-----x-----x-----x-----x-----x-----x-----x-----x-----x-----x-----x-----x-----|
A 8-----8-----8-----8-----8-----8-----8-----8-----10----10----10----10----10----10----10----10----|
E ------------------------------------------------------------------------------------------------|
  o-----o-----o-----o-----o-----o-----o-----o-----o-----o-----o-----o-----o-----o-----o-----o-----|

  1:07
E ------------------------------------------------------------------------------------------------|
B ------------------------------------------------------------------------------------------------|
G 5-----5-----5-----5-----5-----5-----5-----5-----------------------------------------------------|
D 5-----5-----5-----5-----5-----5-----5-----5-----5-----5-----5-----5-----5-----5-----5-----5-----|
A 3-----3-----3-----3-----3-----3-----3-----3-----5-----5-----5-----5-----5-----5-----5-----5-----|
E ------------------------------------------------3-----3-----3-----3-----3-----3-----3-----3-----|
  o-----o-----o-----o-----o-----o-----o-----o-----o-----o-----o-----o-----o-----o-----o-----o-----|

  1:10
E ------------------------------------------------------------------------------------------------|
B ------------------------------------------------------------------------------------------------|
G ------------------------------------------------------------------------------------------------|
D 3-----3-----3-----3-----3-----3-----3-----3-----5-----5-----5-----5-----5-----5-----5-----5-----|
A 3-----3-----3-----3-----3-----3-----3-----3-----5-----5-----5-----5-----5-----5-----5-----5-----|
E 1-----1-----1-----1-----1-----1-----1-----1-----3-----3-----3-----3-----3-----3-----3-----3-----|
  o-----o-----o-----o-----o-----o-----o-----o-----o-----o-----o-----o-----o-----o-----o-----o-----|

  1:13
E ------------------------------------------------------------------------------------------------|
B ------------------------------------------------------------------------------------------------|
G ------------------------------------------------------------------------------------------------|
D ------------------------------------------------------------------------------------------------|
A 3-----3-----3-----3-----3-----3-----3-----3-----10----10----10----10----10----10----10----10----|
E ------------------------------------------------------------------------------------------------|
  m-----m-----m-----m-----m-----m-----m-----m-----m-----m-----m-----m-----m-----m-----m-----m-----|

  1:16
E ------------------------------------------------------------------------------------------------|
B ------------------------------------------------------------------------------------------------|
G ------------------------------------------------------------------------------------------------|
D ------------------------------------------------------------------------------------------------|
A 8-----8-----8-----8-----8-----8-----8-----8-----10----10----10----10----10----10----10----10----|
E ------------------------------------------------------------------------------------------------|
  m-----m-----m-----m-----m-----m-----m-----m-----m-----m-----m-----m-----m-----m-----m-----m-----|

  1:19
E ------------------------------------------------------------------------------------------------|
B ------------------------------------------------------------------------------------------------|
G ------------------------------------------------------------------------------------------------|
D ------------------------------------------------------------------------------------------------|
A 3-----3-----3-----3-----3-----3-----3-----3-----10----10----10----10----10----10----10----10----|
E ------------------------------------------------------------------------------------------------|
  m-----m-----m-----m-----m-----m-----m-----m-----m-----m-----m-----m-----m-----m-----m-----m-----|

  1:21
E ------------------------------------------------------------------------------------------------|
B ------------------------------------------------------------------------------------------------|
G ------------------------------------------------------------------------------------------------|
D ------------------------------------------------------------------------------------------------|
A 8-----8-----8-----8-----8-----8-----8-----8-----10----10----10----10----10----10----10----10----|
E ------------------------------------------------------------------------------------------------|
  m-----m-----m-----m-----m-----m-----m-----m-----m-----m-----m-----m-----m-----m-----m-----m-----|

  1:24
E ------------------------------------------------------------------------------------------------|
B ------------------------------------------------------------------------------------------------|
G 5-----5-----5-----5-----5-----5-----5-----5-----12----12----12----12----12----12----12----12----|
D x-----x-----x-----x-----x-----x-----x-----x-----x-----x-----x-----x-----x-----x-----x-----x-----|
A 3-----3-----3-----3-----3-----3-----3-----3-----10----10----10----10----10----10----10----10----|
E ------------------------------------------------------------------------------------------------|
  o-----o-----o-----o-----o-----o-----o-----o-----o-----o-----o-----o-----o-----o-----o-----o-----|

  1:27
E ------------------------------------------------------------------------------------------------|
B ------------------------------------------------------------------------------------------------|
G 10----10----10----10----10----10----10----10----12----12----12----12----12----12----12----12----|
D x-----x-----x-----x-----x-----x-----x-----x-----x-----x-----x-----x-----x-----x-----x-----x-----|
A 8-----8-----8-----8-----8-----8-----8-----8-----10----10----10----10----10----10----10----10----|
E ------------------------------------------------------------------------------------------------|
  o-----o-----o-----o-----o-----o-----o-----o-----o-----o-----o-----o-----o-----o-----o-----o-----|

  1:30
E ------------------------------------------------------------------------------------------------|
B ------------------------------------------------------------------------------------------------|
G 5-----5-----5-----5-----5-----5-----5-----5-----12----12----12----12----12----12----12----12----|
D x-----x-----x-----x-----x-----x-----x-----x-----x-----x-----x-----x-----x-----x-----x-----x-----|
A 3-----3-----3-----3-----3-----3-----3-----3-----10----10----10----10----10----10----10----10----|
E ------------------------------------------------------------------------------------------------|
  o-----o-----o-----o-----o-----o-----o-----o-----o-----o-----o-----o-----o-----o-----o-----o-----|

  1:33
E ------------------------------------------------------------------------------------------------|
B ------------------------------------------------------------------------------------------------|
G 10----10----10----10----10----10----10----10----12----12----12----12----12----12----12----12----|
D x-----x-----x-----x-----x-----x-----x-----x-----x-----x-----x-----x-----x-----x-----x-----x-----|
A 8-----8-----8-----8-----8-----8-----8-----8-----10----10----10----10----10----10----10----10----|
E ------------------------------------------------------------------------------------------------|
  o-----o-----o-----o-----o-----o-----o-----o-----o-----o-----o-----o-----o-----o-----o-----o-----|

  1:35
E ------------------------------------------------------------------------------------------------|
B ------------------------------------------------------------------------------------------------|
G 5-----5-----5-----5-----5-----5-----5-----5-----------------------------------------------------|
D 5-----5-----5-----5-----5-----5-----5-----5-----5-----5-----5-----5-----5-----5-----5-----5-----|
A 3-----3-----3-----3-----3-----3-----3-----3-----5-----5-----5-----5-----5-----5-----5-----5-----|
E ------------------------------------------------3-----3-----3-----3-----3-----3-----3-----3-----|
  o-----o-----o-----o-----o-----o-----o-----o-----o-----o-----o-----o-----o-----o-----o-----o-----|

  1:38
E ------------------------------------------------------------------------------------------------|
B ------------------------------------------------------------------------------------------------|
G ------------------------------------------------------------------------------------------------|
D 2-----2-----2-----2-----2-----2-----2-----2-----5-----5-----5-----5-----5-----5-----5-----5-----|
A 2-----2-----2-----2-----2-----2-----2-----2-----5-----5-----5-----5-----5-----5-----5-----5-----|
E 0-----0-----0-----0-----0-----0-----0-----0-----3-----3-----3-----3-----3-----3-----3-----3-----|
  o-----o-----o-----o-----o-----o-----o-----o-----o-----o-----o-----o-----o-----o-----o-----o-----|

  1:41
E ------------------------------------------------------------------------------------------------|
B ------------------------------------------------------------------------------------------------|
G ------------------------------------------------------------------------------------------------|
D ------------------------------------------------------------------------------------------------|
A 3-----3-----3-----3-----3-----3-----3-----3-----10----10----10----10----10----10----10----10----|
E ------------------------------------------------------------------------------------------------|
  m-----m-----m-----m-----m-----m-----m-----m-----m-----m-----m-----m-----m-----m-----m-----m-----|

  1:44
E ------------------------------------------------------------------------------------------------|
B ------------------------------------------------------------------------------------------------|
G ------------------------------------------------------------------------------------------------|
D ------------------------------------------------------------------------------------------------|
A 8-----8-----8-----8-----8-----8-----8-----8-----10----10----10----10----10----10----10----10----|
E ------------------------------------------------------------------------------------------------|
  m-----m-----m-----m-----m-----m-----m-----m-----m-----m-----m-----m-----m-----m-----m-----m-----|

  1:47
E ------------------------------------------------------------------------------------------------|
B ------------------------------------------------------------------------------------------------|
G ------------------------------------------------------------------------------------------------|
D ------------------------------------------------------------------------------------------------|
A 3-----3-----3-----3-----3-----3-----3-----3-----10----10----10----10----10----10----10----10----|
E ------------------------------------------------------------------------------------------------|
  m-----m-----m-----m-----m-----m-----m-----m-----m-----m-----m-----m-----m-----m-----m-----m-----|

  1:50
E ------------------------------------------------------------------------------------------------|
B ------------------------------------------------------------------------------------------------|
G ------------------------------------------------------------------------------------------------|
D ------------------------------------------------------------------------------------------------|
A 8-----8-----8-----8-----8-----8-----8-----8-----10----10----10----10----10----10----10----10----|
E ------------------------------------------------------------------------------------------------|
  m-----m-----m-----m-----m-----m-----m-----m-----m-----m-----m-----m-----m-----m-----m-----m-----|

  1:52
E ------------------------------------------------------------------------------------------------|
B ------------------------------------------------------------------------------------------------|
G 5-----5-----5-----5-----5-----5-----5-----5-----12----12----12----12----12----12----12----12----|
D x-----x-----x-----x-----x-----x-----x-----x-----x-----x-----x-----x-----x-----x-----x-----x-----|
A 3-----3-----3-----3-----3-----3-----3-----3-----10----10----10----10----10----10----10----10----|
E ------------------------------------------------------------------------------------------------|
  o-----o-----o-----o-----o-----o-----o-----o-----o-----o-----o-----o-----o-----o-----o-----o-----|

  1:55
E ------------------------------------------------------------------------------------------------|
B ------------------------------------------------------------------------------------------------|
G 10----10----10----10----10----10----10----10----12----12----12----12----12----12----12----12----|
D x-----x-----x-----x-----x-----x-----x-----x-----x-----x-----x-----x-----x-----x-----x-----x-----|
A 8-----8-----8-----8-----8-----8-----8-----8-----10----10----10----10----10----10----10----10----|
E ------------------------------------------------------------------------------------------------|
  o-----o-----o-----o-----o-----o-----o-----o-----o-----o-----o-----o-----o-----o-----o-----o-----|

  1:58
E ------------------------------------------------------------------------------------------------|
B ------------------------------------------------------------------------------------------------|
G 5-----5-----5-----5-----5-----5-----5-----5-----12----12----12----12----12----12----12----12----|
D x-----x-----x-----x-----x-----x-----x-----x-----x-----x-----x-----x-----x-----x-----x-----x-----|
A 3-----3-----3-----3-----3-----3-----3-----3-----10----10----10----10----10----10----10----10----|
E ------------------------------------------------------------------------------------------------|
  o-----o-----o-----o-----o-----o-----o-----o-----o-----o-----o-----o-----o-----o-----o-----o-----|

  2:01
E ------------------------------------------------------------------------------------------------|
B ------------------------------------------------------------------------------------------------|
G 10----10----10----10----10----10----10----10----12----12----12----12----12----12----12----12----|
D x-----x-----x-----x-----x-----x-----x-----x-----x-----x-----x-----x-----x-----x-----x-----x-----|
A 8-----8-----8-----8-----8-----8-----8-----8-----10----10----10----10----10----10----10----10----|
E ------------------------------------------------------------------------------------------------|
  o-----o-----o-----o-----o-----o-----o-----o-----o-----o-----o-----o-----o-----o-----o-----o-----|

  2:04
E ------------------------------------------------------------------------------------------------|
B ------------------------------------------------------------------------------------------------|
G 5-----------5-----------5-----------5-----------12----------12----------12----------12----------|
D x-----------x-----------x-----------x-----------x-----------x-----------x-----------x-----------|
A 3-----------3-----------3-----------3-----------10----------10----------10----------10----------|
E ------------------------------------------------------------------------------------------------|
  o-----------o-----------o-----------o-----------o-----------o-----------o-----------o-----------|

  2:06
E ------------------------------------------------------------------------------------------------|
B ------------------------------------------------------------------------------------------------|
G 10----------10----------10----------10----------12----------12----------12----------12----------|
D x-----------x-----------x-----------x-----------x-----------x-----------x-----------x-----------|
A 8-----------8-----------8-----------8-----------10----------10----------10----------10----------|
E ------------------------------------------------------------------------------------------------|
  o-----------o-----------o-----------o-----------o-----------o-----------o-----------o-----------|

  2:09
E ------------------------------------------------------------------------------------------------|
B ------------------------------------------------------------------------------------------------|
G 5-----------------------------------------------------------------------------------------------|
D x-----------------------------------------------------------------------------------------------|
A 3-----------------------------------------------------------------------------------------------|
E ------------------------------------------------------------------------------------------------|
  o-----------------------------------------------------------------------------------------------|

  2:12
E ------------------------------------------------------------------------------------------------|
B ------------------------------------------------------------------------------------------------|
G ------------------------------------------------------------------------------------------------|
D ------------------------------------------------------------------------------------------------|
A ------------------------------------------------------------------------------------------------|
E ------------------------------------------------------------------------------------------------|
  ------------------------------------------------------------------------------------------------|

  2:15
E ------------------------|
B ------------------------|
G ------------------------|
D ------------------------|
A ------------------------|
E ------------------------|
  ------------------------|
Добавлено: 17.10.2015
Другие материалы по этой песне:
  • Аккорды и текст

Страница создана 17.10.2015
http://primanota.ru/misc-unsigned-bands/juliette-i-love-you-chords.htm
Привет, Гость.
Предлагаем пройти революционный курс по гитаре.
Подарок от PrimaNota.Ru, забирай!