PrimaNota.ru - самый крупный в мире бесплатный архив песенных текстов, аккордов, табулатур и нот


Misc Unsigned Bands - Jody Colero - Lost Girl Theme - бас-таба

Регистрация Запомнить меня
Войти через:  Facebook Google Twitter Vk Yandex Mail.ru

Misc Unsigned Bands - Jody Colero - Lost Girl Theme - бас-таба

Печатать
Просмотров: 214
Lost Girl Theme
Jody Colero
Soundtrack

Standard Tuning
key of D

Verse:
(Who can calm the savage rage...)
G|--7(x15)-9-10(x16)-9(x16)-------------------|
D|--------------------------5(x16)------------|
A|--------------------------------------------|
E|--------------------------------------------|


Instrumental:

G|--------------------------------------------|
D|--------------------------------------------|
A|--------------------------------------3-----|
E|-55-35-35-355-35-36--55-35-35-355-35-3------|


Refrain:
(oh oh, oh oh oh you gave your heart...)
G|-----------------------------------------------|
D|-----------------------------------------------|
A|-----------------3------------------------355--|
E|-55-35-35-355-35--5-311--01-01-011--01-35------|

G|---------------------------------------------|
D|---------------3-----------------------------|
A|-35-35-355--35--5-3---------------------3----|
E|-------------------11--01-01-011--01-35------|



For the timing and lengths of the notes, just listen to the song. It's pretty easy. For
those who will ask, I can't tell the chords used, just the root notes. This was
requested by a Lost Girl fan I know who challenged me to play it on a bass, I figured 
I'd put it up here for anyone else who's interested. Hope you find this useful. Please 
rate and
comment. God Bless. :)
Добавлено: 23.10.2013
Другие материалы по этой песне:
  • Аккорды и текст

Страница создана 23.10.2013
http://primanota.ru/misc-unsigned-bands/jody-colero-lost-girl-theme-chords.htm
Привет, Гость.
Предлагаем пройти революционный курс по гитаре.
Подарок от PrimaNota.Ru, забирай!