PrimaNota.ru - самый крупный в мире бесплатный архив песенных текстов, аккордов, табулатур и нот


Misc Unsigned Bands - Katherines Broadcast - Meet Me In Chicago - бас-таба

Регистрация Запомнить меня
Войти через:  Facebook Google Twitter Vk Yandex Mail.ru

Misc Unsigned Bands - Katherines Broadcast - Meet Me In Chicago - бас-таба

Печатать
Просмотров: 48
-------------------------------------------------------------------------------
                             CHICAGO - Katherine's Broadcast
-------------------------------------------------------------------------------
Tabbed by: Lumen Musica
E-mail: kaethoflight@live.com

Tuning: G-D-A-D (Drop-D Tuning)

Intro Part 1(1x)
G|------------------------------------------------------|
D|------------------------------------------------------|
A|----------------4--4--0--0--------------4--4--0-------|
D|----2--2--2--2--------------2--2--2--2----------15\---|

Intro Part 2/Post Chorus (2x)
G|-------------------------------|
D|-------------------------------|
A|-----------------4444--0---0---|
D|----2222--2---2----------------|

Intro Part 3 (2x)
G|-------------------------------------------------------------------------------------|
D|-------------------------------------------------------------------------------------|
A|------------------------------------------0--0--0--0--00--00--4--4--4--2--22--22-----|
D|--2--2--2--2--22--22--4--4--4--4--44--44---------------------------------------------|

Verse (2x)
G|----------------------------------------|
D|----------------------------------------|
A|----------------------0000--0--4444--2--|
D|----2222--2--4444--4--------------------|

Pre-Chorus (1x)
G|--------------------------------------------|
D|--------------------------------------------|
A|---3-44444444--------00000000--22--2-22-2---|
D|-------------44444444-----------------------|

Chorus (2x, the first time and the second time generally have different rhythms.)
G|--------------------------------------------------------------------|
D|--------------------------------------------------------------------|
A|--------------------000000000000000044444444444444442222222222222---|
D|----2222222222222222------------------------------------------------|

Intro Part 2/Post Chorus (2x)

Verse (2x)

Pre-Chorus (1x)

Chorus (2x)

Intro Part 2/Post Chorus (2x)

Instrumental (3x, Bass time.)
G|------------------------------------------------------------------|
D|------------------------------------------------------------------|
A|----44xx44x4x444444-----------------------------------------------|
D|-------------------66xx66x6x66666611xx11x1x11111122xx22xx2x222222-|

Pre-Chorus (1x)

Down Chorus (1x, same notes as normal chorus, play each note once)

Chorus Build Up (2x, Crescendo into each note change, play eighth notes.)

Chorus (1x, normal chorus.)

End note
A|--0--|



| /  slide up
| \  slide down
| h  hammer-on
| p  pull-off
| ~  vibrato
| +  harmonic
| x  Mute note
===============================================================================
Добавлено: 25.10.2013
Другие материалы по этой песне:
  • Аккорды и текст

Страница создана 25.10.2013
http://primanota.ru/misc-unsigned-bands/katherines-broadcast-meet-me-in-chicago-chords.htm
Привет, Гость.
Предлагаем пройти революционный курс по гитаре.
Подарок от PrimaNota.Ru, забирай!