PrimaNota.ru - самый крупный в мире бесплатный архив песенных текстов, аккордов, табулатур и нот


Misc Unsigned Bands - Kalik - Beauty Thing - бас-таба

Регистрация Запомнить меня
Войти через:  Facebook Google Twitter Vk Yandex Mail.ru

Misc Unsigned Bands - Kalik - Beauty Thing - бас-таба

Печатать
Просмотров: 57
tabbed by Sir ernie
Intro
G|--------------------------------------|
D|-----------4--5--7--5--4--------------|
A|----5--7-------------------7--5-------|
E|--------------------------------------|


Verse
G|------7----7-----------------------------------------------|
D|------------------7----7------9----9-----------5-----5-----|
A|---5----5--------------------------------------------------|
E|--------------5-----5------7----7-------3-3------3-3-------|
play verse three times and play this the fourth

G|----7----7----------------------------------------------------------------|
D|---------------7----7--------9------9------10--10--10--10--10--10--10--11-|
A|--5----5------------------------------------------------------------------|
E|------------5-----5-------7-----7-7------8---8---8---8---8---8---8---9----|


Chorus
G|---------------------------------------------------------|
D|---------------------------------------------------------|
A|---5-5-5-5-5--------------------------10--8--7-----------|
E|-------------5-5-5-5-5--7-7-7-7-7-8----------------------|

G|---------------------------------------------------------|
D|--------------------------------------5-5-5-5-5-5-5------|
A|---5-5-5-5-5---------------------------------------------|
E|-------------5-5-5-5-5--7-7-7-7-7------------------------|

G|---------------------------------------------------------|
D|---------------------------------------------------------|
A|---5-5-5-5-5--------------------------10--8--7-----------|
E|-------------5-5-5-5-5--7-7-7-7-7-8----------------------|

G|---------------------------------------------------------|
D|---------------------------------------------------------|
A|---5-5-5-5-5----------------------------3-4--------------|
E|-------------5-5-5-5-5--7-7-7-7-7---3-5------------------|

G|---------------------------------------------------------|
D|---------------------------------------------------------|
A|---5-5-5-5-5-------------3-3-3---h5-p5-3-2---------------|
E|-------------5-5-5-5-5-----------------------------------|

G|-------------------------------------------------------------|
D|-----------4-4-5-5-------------------------------------------|
A|---5-5-7-7------------------4-4-5-5---3-3-3---h5-p5-3-2------|
E|--------------------5-5-7-7----------------------------------|

2. verse

G|-----7----7------------------------------------------------|
D|----------------------9---9------5---5---------------------|
A|--5----5---------------------------------------------------|
E|-------------------7---7------3----3-----------------------|
do this another 3 times
and then do this



G|-----7---7-----------------------------------------------------------|
D|----------------------9-----9----10--10--10--10--10--10--10--10--11--|
A|--5----5-------------------------------------------------------------|
E|-------------------7----7-7----8---8---8---8---8---8---8---8---9-----|


Chorus
G|---------------------------------------------------------|
D|---------------------------------------------------------|
A|---5-5-5-5-5--------------------------10--8--7-----------|
E|-------------5-5-5-5-5--7-7-7-7-7-8----------------------|

G|---------------------------------------------------------|
D|--------------------------------------5-5-5-5-5-5-5------|
A|---5-5-5-5-5---------------------------------------------|
E|-------------5-5-5-5-5--7-7-7-7-7------------------------|

G|---------------------------------------------------------|
D|---------------------------------------------------------|
A|---5-5-5-5-5--------------------------10--8--7-----------|
E|-------------5-5-5-5-5--7-7-7-7-7-8----------------------|

G|---------------------------------------------------------|
D|---------------------------------------------------------|
A|---5-5-5-5-5----------------------------3-4--------------|
E|-------------5-5-5-5-5--7-7-7-7-7---3-5------------------|

G|---------------------------------------------------------|
D|---------------------------------------------------------|
A|---5-5-5-5-5-------------3-3-3---h5-p5-3-2---------------|
E|-------------5-5-5-5-5-----------------------------------|

G|-------------------------------------------------------------|
D|-----------4-4-5-5-------------------------------------------|
A|---5-5-7-7------------------4-4-5-5---3-3-3---h5-p5-3-2------|
E|--------------------5-5-7-7----------------------------------|


Solo
G|---------------------------------------------------------------------|
D|----------4-4-5-5-----------------------------------5-5-5-5-5-5-5-5--|
A|--5-5-7-7------------------4-4-5-5---------6-6-7-7-------------------|
E|-------------------5-5-7-7---------7-7-9-9---------------------------|

G|---------------------------------------------------------------------|
D|----------4-4-5-5-------------------------------------5----5---------|
A|--5-5-7-7-------------------4-4-5-5---------6-6-7-7------------------|
E|-------------------5-5--7-7---------7-7-9-9---------3---3-3----------|

G|---------------------------------------------------------------------|
D|----------4-4-5-5----------------------------------------------------|
A|--5-5-7-7-----------------4-4-5-5-----9-9-7-7-6-6-----5-5-3-3-2-2----|
E|------------------5-5-7-7---------7-7-------------3-3----------------|

G|--------------------------------------------------------------------------------------------|
D|------7-7-4-4-5-5------------------------------------10--10--10--10--10--10--10--10--11-----|
A|--5-5-----------------7-7-4-4-5-5------9-9-6-6-7-7------------------------------------------|
E|------------------5-5--------------7-7-------------8---8---8---8---8---8---8---8---9--------|

Chorus
G|---------------------------------------------------------|
D|---------------------------------------------------------|
A|---5-5-5-5-5--------------------------10--8--7-----------|
E|-------------5-5-5-5-5--7-7-7-7-7-8----------------------|

G|---------------------------------------------------------|
D|--------------------------------------5-5-5-5-5-5-5------|
A|---5-5-5-5-5---------------------------------------------|
E|-------------5-5-5-5-5--7-7-7-7-7------------------------|

G|---------------------------------------------------------|
D|---------------------------------------------------------|
A|---5-5-5-5-5--------------------------10--8--7-----------|
E|-------------5-5-5-5-5--7-7-7-7-7-8----------------------|

G|---------------------------------------------------------|
D|---------------------------------------------------------|
A|---5-5-5-5-5----------------------------3-4--------------|
E|-------------5-5-5-5-5--7-7-7-7-7---3-5------------------|

G|---------------------------------------------------------|
D|---------------------------------------------------------|
A|---5-5-5-5-5-------------3-3-3---h5-p5-3-2---------------|
E|-------------5-5-5-5-5-----------------------------------|

G|---------------------------------------------------------|
D|-----------4-4-5-5------------------------2h3p2----------|
A|---5-5-7-7------------------4-4-5-5---3-5--------2-------|
E|--------------------5-5-7-7------------------------------|
Добавлено: 16.11.2013
Другие материалы по этой песне:
  • Аккорды и текст

Страница создана 16.11.2013
http://primanota.ru/misc-unsigned-bands/kalik-beauty-thing-chords.htm
Привет, Гость.
Предлагаем пройти революционный курс по гитаре.
Подарок от PrimaNota.Ru, забирай!