PrimaNota.ru - самый крупный в мире бесплатный архив песенных текстов, аккордов, табулатур и нот


Misc Unsigned Bands - Katherines Broadcast - Living For Tonight - бас-таба

Регистрация Запомнить меня
Войти через:  Facebook Google Twitter Vk Yandex Mail.ru

Misc Unsigned Bands - Katherines Broadcast - Living For Tonight - бас-таба

Печатать
Просмотров: 59
-------------------------------------------------------------------------------
                             LIVING FOR TONIGHT - Katherine's Broadcast
-------------------------------------------------------------------------------
Tabbed by: Lumen Musica
E-mail: kaethoflight@live.com

Tuning: G-D-A-D (Drop D Tuning)

Intro Riff
G|--------345555567777777755555555--|
D|----5555--------------------------|
A|----------------------------------|
D|----------------------------------|

Intro Chords (2x)
G|---------------------------------------|
D|---------------------------------------|
A|--------------33--33--5555555533333333-|
D|------55--55---------------------------|

Verse (4x, there are hits at the end of the 4th time)
G|---------------------------------------|
D|---------------------------------------|
A|--------1-2-33333-4-5555555533333333---|
D|----5555-------------------------------|

Chorus (4x, repeat the last phrase on the 4th time)
G|-------------------------------------|
D|-------------------------------------|
A|------------------7777555533333333---|
D|---5--55--5--5555--------------------|

Intro Chords (2x)

Verse (4x with hits at the end of the 4th)

Chorus (4x, same repeat at the end)

Solos (First half, 2x)
G|--------------------|
D|--------------------|
A|--------------------|
D|----5-5-5-5-2-2-0-0-|

Solos (Second half, 2x)
G|--------------------|
D|--------------------|
A|------------7-7-5-5-|
D|----5-5-5-5---------|

Down Chorus
G|----4--------------------4-------------------|
D|----5--------------------5-------------------|
A|----5--------7---5---3---5---------7---5---3-|
D|----5--------------------5-------------------|

Half Time Chorus (2x, same chords, looser rhythms.)

Chorus (4x, like normal.)

End Chord!
G|----4----|
D|----5----|
A|----5----|
E|----5----|

| /  slide up
| \  slide down
| h  hammer-on
| p  pull-off
| ~  vibrato
| +  harmonic
| x  Mute note
===============================================================================
Добавлено: 01.10.2013
Другие материалы по этой песне:
  • Аккорды и текст

Страница создана 01.10.2013
http://primanota.ru/misc-unsigned-bands/katherines-broadcast-living-for-tonight-chords.htm
Привет, Гость.
Предлагаем пройти революционный курс по гитаре.
Подарок от PrimaNota.Ru, забирай!