PrimaNota.ru - самый крупный в мире бесплатный архив песенных текстов, аккордов, табулатур и нот


Misc Unsigned Bands - Katherines Broadcast - Grew Up - бас-таба

Регистрация Запомнить меня
Войти через:  Facebook Google Twitter Vk Yandex Mail.ru

Misc Unsigned Bands - Katherines Broadcast - Grew Up - бас-таба

Печатать
Просмотров: 67
Уроки эстрадного вокала в Санкт-Петербурге
-------------------------------------------------------------------------------
                             GREW UP - Katherine's Broadcast
-------------------------------------------------------------------------------
Tabbed by: Lumen Musica
E-mail: kaethoflight@live.com

Tuning: G-D-A-D (Drop D Tuning)

Intro (Repeat 4 times)
G|------------------------|
D|------------------------|
A|------------------3-3--3|
D|--5--55-5---5-2--2------|

Verse 
(Play the second time through, play the 3--2--0--2 first on "You want from me")
G|------------------------------------------------------------------------|
D|------------------------------------------------------------------------|
A|-------------------------------------------------------------3--2--0--2-|
D|--5----5----5----5----0----0----0----0----2----2----2----2--------------|

Chorus Part 1 (2x)
G|-------------------------|
D|-------------------------|
A|--------------------3-3--|
D|--5-5---5-5---2-2--------|

Chorus Part 2 (2x)
G|------------------------|
D|------------------------|
A|------------------3-3--3|
D|--5--55-5---5-2--2------|

Ring out on middle D at the end of the first chorus. (5th fret high D string)

Verse

Chorus Part 1 (2x)

Chorus Part 2 (4x)

Instrumental Solo Stuff (Vary it how you see fit. It's all flexible.)
G|--------------------------------------------------------------------|
D|-3-3-3-3-3-3-3-3-5-5-5-5-5-5-5-5-7-7-7-7-7-7-7-7-7-7-7-7-7-7-7-7-7--|
A|--------------------------------------------------------------------|
D|--------------------------------------------------------------------|

Down Time Chorus Part 1 (Don't play first two times through the progression)

Chorus Part 1 (2x)

Chorus Part 2 (4x)

Tag
G|------------------------|
D|--3---------------------|
A|------------------------|
D|---------------5\-------|



| /  slide up
| \  slide down
| h  hammer-on
| p  pull-off
| ~  vibrato
| +  harmonic
| x  Mute note
===============================================================================
Добавлено: 16.06.2013
Другие материалы по этой песне:
  • Аккорды и текст

Страница создана 16.06.2013
http://primanota.ru/misc-unsigned-bands/katherines-broadcast-grew-up-chords.htm
Привет, Гость.
Предлагаем пройти революционный курс по гитаре.
Подарок от PrimaNota.Ru, забирай!