PrimaNota.ru - самый крупный в мире бесплатный архив песенных текстов, аккордов, табулатур и нот


Misc Unsigned Bands - Katherines Broadcast - One More Lie - бас-таба

Регистрация Запомнить меня
Войти через:  Facebook Google Twitter Vk Yandex Mail.ru

Misc Unsigned Bands - Katherines Broadcast - One More Lie - бас-таба

Печатать
Просмотров: 62
-------------------------------------------------------------------------------
                             ONE MORE LIE (W/ INTRO) - Katherine's Broadcast
-------------------------------------------------------------------------------
Tabbed by: Lumen Musica
E-mail: kaethoflight@live.com

Tuning: G-D-A-D (Drop D-Tuning)

Intro (Repeat however many times until the One More Lie riff plays.)
G|----------------------------------------|
D|------2-22------------------------------|
A|-----------233333332-------2------------|
D|----22-2--2---------5555555-55555554----|

One More Lie Bridge (2x)
G|---------------------|
D|---------------------|
A|--------2222---------|
D|----5555----22221-0--|

Verse 1 (Don't play first two times through, hold out notes the 3rd & 4th time.)
G|-----------------------|
D|-----------------------|
A|----------2------------|
D|----5-----------2------|

Pre-Chorus (1x)
G|------------------------------|
D|------------------------------|
A|--------------3---------------|
D|----2----5---------00--00-00--|

Chorus (1x)
G|----------------------------------------------------------------------|
D|----------------------------------------------------------------------|
A|------------2222222233333333----------------222222223333333355555555--|
D|----55555555----------------2222222255555555--------------------------|

Post-Chorus (1x)
G|------------------|
D|------------------|
A|----3-------------|
D|---------1---1-0--|

One More Lie Bridge (2x)

Verse 2
 (2x, a very great rhythm, second time at the end drone on E, no slide.)
G|--------------------------------------------------------------|
D|--------------------------------------------------------------|
A|------------22--2---------------------22--2-------------------|
D|----5---5--5-----2---2--2---4-5---5--5--------2--2--2--15\----|


Pre-Chorus (1x)

Chorus (1x)

Guitar Break

End Tag/Guitar Solo 
(Repeats until end, minus the break before solos and the very end.)
G|-------------------------------|
D|-------------------------------|
A|-----------2-2--2-------3--5---|
D|----5--5--5-------2--2---------|


| /  slide up
| \  slide down
| h  hammer-on
| p  pull-off
| ~  vibrato
| +  harmonic
| x  Mute note
===============================================================================
Добавлено: 16.09.2013
Другие материалы по этой песне:
  • Аккорды и текст

Страница создана 16.09.2013
http://primanota.ru/misc-unsigned-bands/katherines-broadcast-one-more-lie-chords.htm
Привет, Гость.
Предлагаем пройти революционный курс по гитаре.
Подарок от PrimaNota.Ru, забирай!