PrimaNota.ru - самый крупный в мире бесплатный архив песенных текстов, аккордов, табулатур и нот


Misc Unsigned Bands - Jamil - The Rock City Boy - бас-таба

Регистрация Запомнить меня
Войти через:  Facebook Google Twitter Vk Yandex Mail.ru

Misc Unsigned Bands - Jamil - The Rock City Boy - бас-таба

Печатать
Просмотров: 421
Уроки эстрадного вокала в Санкт-Петербурге
-------------------------------------------------------------------------------
                 Jamil- The Rock City Boy (Fairy Tail OP 8)
-------------------------------------------------------------------------------

Tabbed By: Amara A.
e-mail: aamara48@gmail.com
Tuning: standard
~This is my first tab, so feel free to leave any comments/corrections~

Intro x2
G|--------------------------------------------|
D|---9-9-7-6-6--------------------------------|
A|--------------------------------------------|
E|7-------------7-10-12-10-7------------------|

Verse One x4 "Chotto yogoreta..."
G|--------------------------------------------|
D|---9-9-7-6-6--------------------------------|
A|--------------------------------------------|
E|7-------------7-10-12-10-7------------------|

Pre-Chorus x4 "Yeah Yeah Yeah..."
G|--------------------------------------------|
D|---9-9-7-6-6--------------------------------|
A|--------------------------------------------|
E|7-------------7-10-12-10-7------------------|


Chorus "Oh baby JANJAN kabe..."
G|---------------------------------------------|
D|5-5-5-5-7-7-7-7-9-9-9-9-2-2-2-2--------------|
A|---------------------------------------------|
E|3-3-3-3-5-5-5-5-7-7-7-7-0-0-0-0--------------|

"Just music sore dakede..."
G|---------------------------------------------|
D|5-5-5-5-4-4-4-4-9-9-9-9-2-2-2-2--------------|
A|---------------------------------------------|
E|3-3-3-3-2-2-2-2-7-7-7-7-0-0-0-0--------------|

"Maji de kyoutsuu-ten..."
G|---------------------------------------------|
D|5-5-5-5-7-7-7-7-9-9-9-9-2-2-2-2--------------|
A|---------------------------------------------|
E|3-3-3-3-5-5-5-5-7-7-7-7-0-0-0-0--------------|

"Just love tada sore dakede..."
G|-----------------------|
D|5-5-5-5-4-4-4-4--------|
A|-----------------------|
E|3-3-3-3-2-2-2-2--------|

"Oikake be free?! My perfect dream!"
G|-----------------------|
D|9-12-14--9-12-12-------|
A|-----------------------|
E|7-10-12--7-10-10-------|

Pre-Verse x4 "I wanna believe the singing on beat..."
G|--------------------------------------------|
D|9-7-4-3-2-0---------------------------------|
A|--------------------------------------------|
E|---------------7-10-12-10-7-----------------|

Verse 2 x4 "Let me tell a little story..."
G|--------------------------------------------|
D|---9-9-7-6-6--------------------------------|
A|--------------------------------------------|
E|7-------------7-10-12-10-7------------------|

Pre-Chorus x4 "Yeah Yeah Yeah..."
G|--------------------------------------------|
D|---9-9-7-6-6--------------------------------|
A|--------------------------------------------|
E|7-------------7-10-12-10-7------------------|

Chorus "Music can save the world..." 
(same as above)

Break x6
G|--------------------------------------------|
D|9-7-4-3-2-0---------------------------------|
A|--------------------------------------------|
E|---------------7-10-12-10-7-----------------|


Pause "Ne teru toki mo..."


Chorus "Oh baby JANJAN kabe..."
G|---------------------------------------------|
D|5-5-5-5-7-7-7-7-9-9-9-9-2-2-2-2--------------|
A|---------------------------------------------|
E|3-3-3-3-5-5-5-5-7-7-7-7-0-0-0-0--------------|

"Just music sore dakede..."
G|---------------------------------------------|
D|5-5-5-5-4-4-4-4-9-9-9-9-2-2-2-2--------------|
A|---------------------------------------------|
E|3-3-3-3-2-2-2-2-7-7-7-7-0-0-0-0--------------|

"Maji de kyoutsuu-ten..."
G|---------------------------------------------|
D|5-5-5-5-7-7-7-7-9-9-9-9-2-2-2-2--------------|
A|---------------------------------------------|
E|3-3-3-3-5-5-5-5-7-7-7-7-0-0-0-0--------------|

"Just love tada sore dakede..."
G|-----------------------|
D|5-5-5-5-4-4-4-4--------|
A|-----------------------|
E|3-3-3-3-2-2-2-2--------|

"Oikake be free...."
G|------------|
D|9-12-14-----|
A|------------|
E|7-10-12-----|

Chorus (repeats) "Butcha ke doko ni iru..."
G|---------------------------------------------|
D|5-5-5-5-7-7-7-7-9-9-9-9-2-2-2-2--------------|
A|---------------------------------------------|
E|3-3-3-3-5-5-5-5-7-7-7-7-0-0-0-0--------------|

"Just feel tsuujite..."
G|----------------------|
D|5-5-5-5-4-4-4-4-------|
A|----------------------|
E|3-3-3-3-2-2-2-2-------|

"So let's all be free!"
G|------------|
D|9-12-14-----|
A|------------|
E|7-10-12-----|

"Dream scheme, whatever means..."
G|---------------------------------------------|
D|5-5-5-5-7-7-7-7-9-9-9-9-2-2-2-2--------------|
A|---------------------------------------------|
E|3-3-3-3-5-5-5-5-7-7-7-7-0-0-0-0--------------|

"Back to the basics..."
G|---------------------------------------------|
D|5-5-5-5-4-4-4-4-9-9-9-9-2-2-2-2--------------|
A|---------------------------------------------|
E|3-3-3-3-2-2-2-2-7-7-7-7-0-0-0-0--------------|

"Run, run, running for something..."
G|---------------------------------------------|
D|5-5-5-5-7-7-7-7-9-9-9-9-2-2-2-2--------------|
A|---------------------------------------------|
E|3-3-3-3-5-5-5-5-7-7-7-7-0-0-0-0--------------|

"Moral of the story..."
G|-----------------------|
D|5-5-5-5-4-4-4-4--------|
A|-----------------------|
E|3-3-3-3-2-2-2-2--------|

"When I say "no", you say "way"..."
G|-----------------------|
D|9-12-14--9-12-14-------|
A|-----------------------|
E|7-10-12--7-10-12-------|
===============================================================================
Добавлено: 07.10.2013
Другие материалы по этой песне:
  • Аккорды и текст

Страница создана 07.10.2013
http://primanota.ru/misc-unsigned-bands/jamil-the-rock-city-boy-chords.htm
Привет, Гость.
Предлагаем пройти революционный курс по гитаре.
Подарок от PrimaNota.Ru, забирай!